PrimaNota.ru - самый крупный в мире бесплатный архив песенных текстов, аккордов, табулатур и нот


The Amazing - The Strangest Thing - таба, видео

Регистрация Запомнить меня
Войти через:  Facebook Google Twitter Vk Yandex Mail.ru

The Amazing - The Strangest Thing - таба, видео

Печатать
Просмотров: 111
Уроки эстрадного вокала в Санкт-Петербурге
-------------------------------------------------------------------------------
                             The Strangest Thing - The Amazing
-------------------------------------------------------------------------------
Tabbed by:arden98

Tuning: Standard, No Capo

Intro:
e|---------------------------------------------------------------------------|
B|-------------------------2-----------2-----------2-----------2-------------|
G|----------------------4-----4-----4-----4-----4-----4-----4-----4----------|
D|----------4--2--0----------------------------------------------------------|
A|----2--4-----------2-----------2-----------2-----------2-------------------|
E|-2-------------------------------------------------------------------------|

Verse, Repeat Three Times:
e|---------------------------------------------------------------------------|
B|-------3-----------3-----------3-----------3-----------3-----------3-------|
G|----2-----2-----2-----2-----2-----2-----2-----2-----2-----2-----2-----2----|
D|-------------------------------------------------0-------------------------|
A|-2-----------------------0-----------0-----------------------0-------------|
E|-------------2-------------------------------------------------------------|

e|---------------------------------------------------------------------------|
B|-------3-----------3-------------------------------------------------------|
G|----4-----4-----4-----4----------------------------------------------------|
D|-------------0-------------------------------------------------------------|
A|---------------------------------------------------------------------------|
E|-3-------------------------------------------------------------------------|

Chorus, Repeat Twice:
e|---------------------------------------------------------------------------|
B|-------2-----------2-----------2-----------2-------------------------------|
G|----2-----2-----2-----2-----2-----2-----2-----2----------------------------|
D|----------------------------------------------------------4--2--0----------|
A|-0-----------0-----------0-----------0-----------0--2--4-------------------|
E|---------------------------------------------------------------------------|

e|---------------------------------------------------------------------------|
B|-------3-----------3-----------3----------3-----------3-----------3--------|
G|----2-----2-----2-----2---2h4-----4--2h4-----4---2h4-----4---2h4-----4-----|
D|---------------------------------------------------------------------------|
A|---------------------------------------------------------------------------|
E|-3-----------3------------3----------3-----------3-----------3-------------|

Repeat Whole Verse Once

Repeat Whole Chorus Once

Outro:
e|---------------------------------------------------------------------------|
B|--------3-----------3------------------------------------------------------|
G|---2h4-----4-----2-----2---------------------------------------------------|
D|---------------------------------------------------------------------------|
A|---------------------------------------------------------------------------|
E|---3-------------3---------------------------------------------------------|



************************************

| /   slide up
| \   slide down
| h   hammer-on
| p   pull-off
| ~   vibrato
| +   harmonic
| x   Mute note
| b   Bend
| pb  Pre-bend
| br  Bend release
| pbr Pre-bend release
| brb Bend release bend

************************************
Добавлено: 15.09.2014
Другие материалы по этой песне:
  • Аккорды и текст

Страница создана 15.09.2014
http://primanota.ru/amazing/strangest-thing-chords.htm
Привет, Гость.
Предлагаем пройти революционный курс по гитаре.
Подарок от PrimaNota.Ru, забирай!