PrimaNota.ru - самый крупный в мире бесплатный архив песенных текстов, аккордов, табулатур и нот


The Amazing Snakeheads - Where Is My Knife - таба, видео

Регистрация Запомнить меня
Войти через:  Facebook Google Twitter Vk Yandex Mail.ru

The Amazing Snakeheads - Where Is My Knife - таба, видео

Печатать
Просмотров: 42
The Amazing Snakeheads-Where is my Knife?



e|-----3-------3------3----------------------------------------------|
B|-----3-------3------3----------------------------------------------|
G|-----3-------3------3 ---------------------------------------------|
D|--5--5----5--5---5--5---5-\-3--------------------------------------|
A|--5-------5------5------5-\-3--------------------------------------|
E|--3-----0h3----0h3----0h3-0-1-0------------------------------------|




Strum this bit up and down
e|--3-3-3-3--3-3-3-3--3-3-3-3--3-3-1-1-1-----------------------------|
B|--3-3-3-3--3-3-3-3--3-3-3-3--3-3-1-1-1-----------------------------|
G|--3-3-3-3--3-3-3-3--3-3-3-3--3-3-1-1-1-----------------------------|
D|-------------------------------------------------------------------|
A|-------------------------------------------------------------------|
E|-------------------------------------------------------------------|

e|--3-3-3-3--5-5-5-5-6/15------15----------15------------------------|
B|--3-3-3-3--5-5-5-5-6/15---------15----------15-18------------------|
G|--3-3-3-3--5-5-5-5-6/15---15-------15--15--------------------------|
D|-------------------------------------------------------------------|
A|-------------------------------------------------------------------|
E|-------------------------------------------------------------------|

e|----15----------15--------------15----------15---------------------|
B|-------15----------15-18-----------15----------15-18---------------|
G|-15-------15--15-------------15-------15--15-----------------------|
D|-------------------------------------------------------------------|
A|-------------------------------------------------------------------|
E|-------------------------------------------------------------------|

e|----15-----------15------------------------------------------------|
B|-------15-----------15---------------------------------------------|
G|-15-------15--15-------15------------------------------------------|
D|-------------------------------------------------------------------|
A|-------------------------------------------------------------------|
E|-------------------------------------------------------------------|




e|--3-3-3-3--3-3-3-3--3-3-3-3--3-3-1-1-1-----------------------------|
B|--3-3-3-3--3-3-3-3--3-3-3-3--3-3-1-1-1-----------------------------|
G|--3-3-3-3--3-3-3-3--3-3-3-3--3-3-1-1-1-----------------------------|
D|-------------------------------------------------------------------|
A|-------------------------------------------------------------------|
E|-------------------------------------------------------------------|

e|--3-3-3-3--5-5-5-5-6/15------15----------15------------------------|
B|--3-3-3-3--5-5-5-5-6/15---------15----------15-18------------------|
G|--3-3-3-3--5-5-5-5-6/15---15-------15--15--------------------------|
D|-------------------------------------------------------------------|
A|-------------------------------------------------------------------|
E|-------------------------------------------------------------------|

e|----15----------15--------------15----------15---------------------|
B|-------15----------15-18-----------15----------15-18---------------|
G|-15-------15--15-------------15-------15--15-----------------------|
D|-------------------------------------------------------------------|
A|-------------------------------------------------------------------|
E|-------------------------------------------------------------------|

e|----15-----------15------------------------------------------------|
B|-------15-----------15---------------------------------------------|
G|-15-------15--15-------15------------------------------------------|
D|-------------------------------------------------------------------|
A|-------------------------------------------------------------------|
E|-------------------------------------------------------------------|





e|-----------------------------------------------------------------------|
B|-----------------------------------------------------------------------|
G|--5br-5br-5br-5br-5br5br-3~--5br-5br-5br5br-3~-------------------------|
D|-----------------------------------------------------------------------|
A|-----------------------------------------------------------------------|
E|-----------------------------------------------------------------------|

e|-----------------------------------------------------------------------|
B|-----------------------------------------------------------------------|
G|--5br-5br-5br-5br-5br5br-3~--5br-5br-5br5br-3/17-----------------------|
D|-----------------------------------------------------------------------|
A|-----------------------------------------------------------------------|
E|-----------------------------------------------------------------------|

e|-----------------------------------------------------------------------|
B|-----------------------------------------------------------------------|
G|--17br-17br-17br-17br-17br17br-15~---15--15--17br-17br-17br17br-15~----|
D|-----------------------------------17--17------------------------------|
A|-----------------------------------------------------------------------|
E|-----------------------------------------------------------------------|

e|-----------------------------------------------------------------------|
B|---15--15--15--15--15--------------------------------------------------|
G|-17--17--17--17--17----------------------------------------------------|
D|-----------------------------------------------------------------------|
A|-----------------------------------------------------------------------|
E|-----------------------------------------------------------------------|

e|-----------------------------------------------------------------------|
B|-----------------------------------------------------------------------|
G|--17br-17br-17br-17br-17br17br-15~---15--15--17br-17br-17br17br-15~\---|
D|-----------------------------------17--17------------------------------|
A|-----------------------------------------------------------------------|
E|-----------------------------------------------------------------------|





e|--3-3-3-3--3-3-3-3--3-3-3-3--3-3-1-1-1-----------------------------|
B|--3-3-3-3--3-3-3-3--3-3-3-3--3-3-1-1-1-----------------------------|
G|--3-3-3-3--3-3-3-3--3-3-3-3--3-3-1-1-1-----------------------------|
D|-------------------------------------------------------------------|
A|-------------------------------------------------------------------|
E|-------------------------------------------------------------------|

e|--3-3-3-3--5-5-5-5-6/15------15----------15------------------------|
B|--3-3-3-3--5-5-5-5-6/15---------15----------15-18------------------|
G|--3-3-3-3--5-5-5-5-6/15---15-------15--15--------------------------|
D|-------------------------------------------------------------------|
A|-------------------------------------------------------------------|
E|-------------------------------------------------------------------|

e|----15----------15--------------15----------15---------------------|
B|-------15----------15-18-----------15----------15-18---------------|
G|-15-------15--15-------------15-------15--15-----------------------|
D|-------------------------------------------------------------------|
A|-------------------------------------------------------------------|
E|-------------------------------------------------------------------|

e|----15-----------15------------------------------------------------|
B|-------15-----------15---------------------------------------------|
G|-15-------15--15-------15------------------------------------------|
D|-------------------------------------------------------------------|
A|-------------------------------------------------------------------|
E|------------------------------3~-----------------------------------|



************************************

| /   slide up
| \   slide down
| h   hammer-on
| p   pull-off
| ~   vibrato
| +   harmonic
| x   Mute note
| b   Bend
| pb  Pre-bend
| br  Bend release
| pbr Pre-bend release
| brb Bend release bend

************************************
Добавлено: 28.12.2015
Вам также может быть интересно:
Другие материалы по этой песне:
  • Аккорды и текст

Страница создана 28.12.2015
http://primanota.ru/amazing-snakeheads/where-is-my-knife-chords.htm
Привет, Гость.
Предлагаем пройти революционный курс по гитаре.
Подарок от PrimaNota.Ru, забирай!