PrimaNota.ru - самый крупный в мире бесплатный архив песенных текстов, аккордов, табулатур и нот


Amatory - Две жизни - аккорды и текст, видео

Регистрация Запомнить меня
Войти через:  Facebook Google Twitter Vk Yandex Mail.ru

Amatory - Две жизни - аккорды и текст, видео

Печатать
Просмотров: 235
Две жизни
Amatory
Так жалко, в лампе нет огня 
И ток холодный как змея 
Отравой желтой полоснет 
По горлу бритвой так легко 
И радуга прозрачный свет 
Раскинет через поле, где 
Детишки трогали себя 
И летом снег пошел не зря 
Он падал прямо на глаза, 
Как сахар таял, и слеза, 
Блеснув на сердце, взорвалась 
Исчезнет боль, уйдет весь страх 
И сердца стук разбудит крик 
И дождь размоет в тот же миг 
Всю ту печаль, что собралась 
Сольет ее ручьями ГРЯЗЬ... 

И в легкие попав слюна 
Откроет путь к иным мирам, 
Разрушенным пустым домам 
И там, где ласковый туман 
Исходит из прозрачных глаз 
Людей, чьи руки в первый раз 
Тянулись к небу из земли 
Но не смогли, но не смогли 
Их сны смешаются в комки 
Осколки стекол и кричи 
Но все же нечего терять 
Забыть, как жить, себя продать 
И голос нежный в тишине 
Прочтет молитвы за людей 
И растворится навсегда 
С планеты черной Земля. 

(дальше гроул)
Расстояние в две жизни 
Просто солнца шар... 
Кровь, солнца луч взорвется в небе 
И так же РАСКАТ! 

(тут протяжно)
Шум прибоя в самый первый раз 
Отдаст все, что я так жда-а-а-а-л... 


Так жалко, в лампе нет огня 
И ток холодный как змея 
Отравой желтой полоснет 
По горлу бритвой так легко 
И радуга прозрачный свет 
Раскинет через поле, где 
Детишки трогали себя 
И летом снег пошел не зря 

(дальше гроул)
Расстояние в две жизни 
Просто солнца шар... 
Кровь, солнца луч взорвется в небе 
И так же РАСКАТ! 

(тут протяжно)
Шум прибоя в самый первый раз 
Зажжеш свечи в темноте
Исчезнеш по лунному пути со мной
Лета-а-ать!!!

        E  E  S E  S E  E  E  E     E  E  S E  S E  E  E  E   
C#||----|---------------------------|---------------------------|
G#||----|---------------------------|---------------------------|
E ||----|---------------------------|---------------------------|
B ||----|---------------------------|---------------------------|
F#||----|--2--1--0-1--0-1--2--1--0--|--2--1--0-1--0-1--2--1--0--|
B ||----|--2--1--0-1--0-1--2--1--0--|--2--1--0-1--0-1--2--1--0--|


  E  E  S E  S E  E  E  E     E  E  S E  S E  E  E  E     W                 
---------------------------|---------------------------|-------------------|
---------------------------|---------------------------|-------------------|
---------------------------|---------------------------|-------------------|
---------------------------|---------------------------|-------------------|
--2--1--0-1--0-1--2--1--0--|--2--1--0-1--0-1--2--1--0--|--0----------------|
--2--1--0-1--0-1--2--1--0--|--2--1--0-1--0-1--2--1--0--|--0----------------|


  E  E  S E  S E  E  E  E     E  E  S E  S E  E  E  E   
---------------------------|---------------------------|
---------------------------|---------------------------|
---------------------------|---------------------------|
---------------------------|---------------------------|
--2--1--0-1--0-1--2--1--0--|--2--1--0-1--0-1--2--1--0--|
--2--1--0-1--0-1--2--1--0--|--2--1--0-1--0-1--2--1--0--|


  E  E  S E  S E  E  E  E     S E  S E  S E  S E  Q       E  Q    E  Q.     E   
---------------------------|---------------------------|--------------------1--|
---------------------------|---------------------------|-----------------------|
---------------------------|---------------------------|-----2-------3---------|
---------------------------|---------------------------|--0-------0------------|
--2--1--0-1--0-1--2--1--0--|--0-0--0-0--0-0--0-0-------|-----------------------|
--2--1--0-1--0-1--2--1--0--|--0-0--0-0--0-0--0-0-------|-----------------------|

Куплет
  E  E  Q    E  E  E  E     E  E  Q    E  Q    E     E  E  Q    H         
--L-------------------1--|--L------------------1--|--L-------------------|
-------------------3-----|------------------------|----------------------|
--------2-------2--------|--------2-------3-------|--------3----2--------|
-----0-------0-----------|-----0-------0----------|-----0----------------|
-------------------------|------------------------|----------------------|
-------------------------|------------------------|----------------------|


  E  Q    E  Q.     E     E  E  Q    E  E  E  E     E  E  Q    E  Q    E   
--------------------1--|--L-------------------1--|--L------------------1--|
-----------------------|-------------------3-----|------------------------|
-----2-------3---------|--------2-------2--------|--------2-------3-------|
--0-------0------------|-----0-------0-----------|-----0-------0----------|
-----------------------|-------------------------|------------------------|
-----------------------|-------------------------|------------------------|


  E  E  Q    H           E  Q    E  Q.     E     E  E  Q    E  E  E  E   
--L-------------------|--------------------1--|--L-------------------1--|
----------------------|-----------------------|-------------------3-----|
--------3----2--------|-----2-------3---------|--------2-------2--------|
-----0----------------|--0-------0------------|-----0-------0-----------|
----------------------|-----------------------|-------------------------|
----------------------|-----------------------|-------------------------|


  E  E  Q    E  Q    E     E  E  Q    H           E  Q    E  Q.     E   
--L------------------1--|--L-------------------|--------------------1--|
------------------------|----------------------|-----------------------|
--------2-------3-------|--------3----2--------|-----2-------3---------|
-----0-------0----------|-----0----------------|--0-------0------------|
------------------------|----------------------|-----------------------|
------------------------|----------------------|-----------------------|


  E  E  Q    E  E  E  E     E  E  Q    E  Q    E     E  E  Q    H         
--L-------------------1--|--L------------------1--|--L-------------------|
-------------------3-----|------------------------|----------------------|
--------2-------2--------|--------2-------3-------|--------3----2--------|
-----0-------0-----------|-----0-------0----------|-----0----------------|
-------------------------|------------------------|----------------------|
-------------------------|------------------------|----------------------|

Проигрыш
  E  E   S  S  S  S S S S S S S E     E  E  E  E  S S S S S S S S  
-----------------------------------|------------------------------|
-----------------------------------|------------------------------|
--------10-10-10-10-9-9-9-9-8-8-9--|--------------6-6-6-6-7-7-7-7-|
--0--0-----------------------------|--0--0--0--0------------------|
--0--0---8--8--8--8-7-7-7-7-6-6-7--|--0--0--0--0--4-4-4-4-5-5-5-5-|
--0--0-----------------------------|--0--0--0--0------------------|


  E  E   S  S  S  S S S S S S S E     E  E  E  E  S S S S S S S S  
-----------------------------------|------------------------------|
-----------------------------------|------------------------------|
--------10-10-10-10-9-9-9-9-8-8-9--|--------------6-6-6-6-7-7-7-7-|
--0--0-----------------------------|--0--0--0--0------------------|
--0--0---8--8--8--8-7-7-7-7-6-6-7--|--0--0--0--0--4-4-4-4-5-5-5-5-|
--0--0-----------------------------|--0--0--0--0------------------|


  E  E   S  S  S  S S S S S S S E     E  E  E  E  S S S S S S S S  
-----------------------------------|------------------------------|
-----------------------------------|------------------------------|
--------10-10-10-10-9-9-9-9-8-8-9--|--------------6-6-6-6-7-7-7-7-|
--0--0-----------------------------|--0--0--0--0------------------|
--0--0---8--8--8--8-7-7-7-7-6-6-7--|--0--0--0--0--4-4-4-4-5-5-5-5-|
--0--0-----------------------------|--0--0--0--0------------------|


  E  E   S  S  S  S S S S S S S E     E  E  E  E  S S S S S S S S  
-----------------------------------|------------------------------|
-----------------------------------|------------------------------|
--------10-10-10-10-9-9-9-9-8-8-9--|--------------6-6-6-6-7-7-7-7-|
--0--0-----------------------------|--0--0--0--0------------------|
--0--0---8--8--8--8-7-7-7-7-6-6-7--|--0--0--0--0--4-4-4-4-5-5-5-5-|
--0--0-----------------------------|--0--0--0--0------------------|

Куплет
  E  Q    E  Q.     E     E  E  Q    E  E  E  E     E  E  Q    E  Q    E   
--------------------1--|--L-------------------1--|--L------------------1--|
-----------------------|-------------------3-----|------------------------|
-----2-------3---------|--------2-------2--------|--------2-------3-------|
--0-------0------------|-----0-------0-----------|-----0-------0----------|
-----------------------|-------------------------|------------------------|
-----------------------|-------------------------|------------------------|


  E  E  Q    H           E  Q    E  Q.     E     E  E  Q    E  E  E  E   
--L-------------------|--------------------1--|--L-------------------1--|
----------------------|-----------------------|-------------------3-----|
--------3----2--------|-----2-------3---------|--------2-------2--------|
-----0----------------|--0-------0------------|-----0-------0-----------|
----------------------|-----------------------|-------------------------|
----------------------|-----------------------|-------------------------|


  E  E  Q    E  Q    E     E  E  Q    H           E  Q    E  Q.     E   
--L------------------1--|--L-------------------|--------------------1--|
------------------------|----------------------|-----------------------|
--------2-------3-------|--------3----2--------|-----2-------3---------|
-----0-------0----------|-----0----------------|--0-------0------------|
------------------------|----------------------|-----------------------|
------------------------|----------------------|-----------------------|


  E  E  Q    E  E  E  E     E  E  Q    E  Q    E     E  E  Q    H         
--L-------------------1--|--L------------------1--|--L-------------------|
-------------------3-----|------------------------|----------------------|
--------2-------2--------|--------2-------3-------|--------3----2--------|
-----0-------0-----------|-----0-------0----------|-----0----------------|
-------------------------|------------------------|----------------------|
-------------------------|------------------------|----------------------|


  E  Q    E  Q.     E     E  E  Q    E  E  E  E     E  E  Q    E  Q    E   
--------------------1--|--L-------------------1--|--L------------------1--|
-----------------------|-------------------3-----|------------------------|
-----2-------3---------|--------2-------2--------|--------2-------3-------|
--0-------0------------|-----0-------0-----------|-----0-------0----------|
-----------------------|-------------------------|------------------------|
-----------------------|-------------------------|------------------------|

                        Проигрыш
  E  E  Q    H           E  E   S  S  S  S S S S S S S E   
--L-------------------|-----------------------------------|
----------------------|-----------------------------------|
--------3----2--------|--------10-10-10-10-9-9-9-9-8-8-9--|
-----0----------------|--0--0-----------------------------|
----------------------|--0--0---8--8--8--8-7-7-7-7-6-6-7--|
----------------------|--0--0-----------------------------|


  E  E  E  E  S S S S S S S S    E  E   S  S  S  S S S S S S S E   
------------------------------|-----------------------------------|
------------------------------|-----------------------------------|
--------------6-6-6-6-7-7-7-7-|--------10-10-10-10-9-9-9-9-8-8-9--|
--0--0--0--0------------------|--0--0-----------------------------|
--0--0--0--0--4-4-4-4-5-5-5-5-|--0--0---8--8--8--8-7-7-7-7-6-6-7--|
--0--0--0--0------------------|--0--0-----------------------------|


  E  E  E  E  S S S S S S S S    E  E   S  S  S  S S S S S S S E   
------------------------------|-----------------------------------|
------------------------------|-----------------------------------|
--------------6-6-6-6-7-7-7-7-|--------10-10-10-10-9-9-9-9-8-8-9--|
--0--0--0--0------------------|--0--0-----------------------------|
--0--0--0--0--4-4-4-4-5-5-5-5-|--0--0---8--8--8--8-7-7-7-7-6-6-7--|
--0--0--0--0------------------|--0--0-----------------------------|


  E  E  E  E  S S S S S S S S    E  E   S  S  S  S S S S S S S E   
------------------------------|-----------------------------------|
------------------------------|-----------------------------------|
--------------6-6-6-6-7-7-7-7-|--------10-10-10-10-9-9-9-9-8-8-9--|
--0--0--0--0------------------|--0--0-----------------------------|
--0--0--0--0--4-4-4-4-5-5-5-5-|--0--0---8--8--8--8-7-7-7-7-6-6-7--|
--0--0--0--0------------------|--0--0-----------------------------|


  E  E  E  E  S S S S S S S S    Q    E  E  E  E  Q     
------------------------------|------------------------|
------------------------------|------------------------|
--------------6-6-6-6-7-7-7-7-|------------------------|
--0--0--0--0------------------|--4----4--6--6--6--4----|
--0--0--0--0--4-4-4-4-5-5-5-5-|--4----4--6--6--6--4----|
--0--0--0--0------------------|--4----4--6--6--6--4----|


  E  E  E  E  E  E  E  E     Q.     Q.     Q     
--------------------------|---------------------|
--------------------------|---------------------|
--------------------------|---------------------|
--L--6--7--7--7--7--7--7--|--0------6------0----|
--L--6--7--7--7--7--7--7--|--0------6------0----|
--L--6--7--7--7--7--7--7--|--0------6------0----|


                   NH  NH  NH  NH  NH  NH  NH  NH                                                  
  E  Q.     Q      T   T   T   T   T   T   T   T    Q    E  E  E  E  Q     
-------------------------------------------------|------------------------|
-------------------------------------------------|------------------------|
------------6------------------------------------|------------------------|
--L--7------6------------------------------------|--4----4--6--6--6--4----|
--L--7------4----5-5-5-5-5-5-5-5-|--4----4--6--6--6--4----|
--L--7-------------------------------------------|--4----4--6--6--6--4----|


  E  E  E  E  E  E  E  E     Q.     Q.     Q     
--------------------------|---------------------|
--------------------------|---------------------|
--------------------------|---------------------|
--L--6--7--7--7--7--7--7--|--0------6------0----|
--L--6--7--7--7--7--7--7--|--0------6------0----|
--L--6--7--7--7--7--7--7--|--0------6------0----|


                   NH  NH  NH  NH  NH  NH  NH  NH                            
  E  Q.     Q      T   T   T   T   T   T   T   T    E  E  E  E  E  E  E  E   
-------------------------------------------------|--------------------------|
-------------------------------------------------|--------------------------|
------------6------------------------------------|--------------------------|
--L--7------6------------------------------------|--------------------------|
--L--7------4----5-5-5-5-5-5-5-5-|--0-----------------------|
--L--7-------------------------------------------|--0--0--0--0--0--0--0--0--|


  E  E  E  E  E  Q    E     E  E  E  E  E  E  E  E     E  E  E  E  E  E  E  E   
-------------------------|--------------------------|--------------------------|
-------------------------|--------------------------|--------------------------|
-------------------------|--------------------------|--------------------------|
-------------------------|--------------------------|--------------------------|
-----------------2----4--|--L-----------------------|--------------------------|
--0--0--0--0--0--2----4--|--L--4--4--4--4--4--4--4--|--4--4--4--4--4--4--4--4--|


  E  E  E  E  E  E  E  E     E  E  E  E  E  Q    E     E  E  E  E  E  E  E  E   
--------------------------|-------------------------|--------------------------|
--------------------------|-------------------------|--------------------------|
--------------------------|-------------------------|--------------------------|
--------------------------|-------------------------|--------------------------|
--0-----------------------|-----------------2----4--|--L-----------------------|
--0--0--0--0--0--0--0--0--|--0--0--0--0--0--2----4--|--L--4--4--4--4--4--4--4--|


  E  E  E  E  E  E  E  E     E  E  H.              E  E  H.            
--------------------------|---------------------|---------------------|
--------------------------|---------------------|---------------------|
--------------------------|---------------------|---------------------|
--------------------------|---------------------|---------------------|
--------------------------|--2------------------|--2--1---------------|
--4--4--4--4--4--4--4--4--|--2------------------|--2--1---------------|


  E  E  S E  S H           E  E  Q    Q      E.   S  
------------------------|---------------------------|
------------------------|---------------------------|
------------------------|---------------------------|
------------------------|---------------------------|
--2--1--0-1-------------|--2--1-------------12S-----|
--2--1--0-1-------------|--2--1-------1S----12S-----|


  E  E  S E  S E  E  E  E     E  E  S E  S E  E  E  E   
---------------------------|---------------------------|
---------------------------|---------------------------|
---------------------------|---------------------------|
---------------------------|---------------------------|
--2--1--0-1--0-1--2--1--0--|--2--1--0-1--0-1--2--1--0--|
--2--1--0-1--0-1--2--1--0--|--2--1--0-1--0-1--2--1--0--|


  E  E  S E  S E  E  E  E     E  E  S E  S E  E  E  E   
---------------------------|---------------------------|
---------------------------|---------------------------|
---------------------------|---------------------------|
---------------------------|---------------------------|
--2--1--0-1--0-1--2--1--0--|--2--1--0-1--0-1--2--1--0--|
--2--1--0-1--0-1--2--1--0--|--2--1--0-1--0-1--2--1--0--|


  E  E  S E  S E  E  E  E     E  E  S E  S E  E  E  E   
---------------------------|---------------------------|
---------------------------|---------------------------|
---------------------------|---------------------------|
---------------------------|---------------------------|
--2--1--0-1--0-1--2--1--0--|--2--1--0-1--0-1--2--1--0--|
--2--1--0-1--0-1--2--1--0--|--2--1--0-1--0-1--2--1--0--|


  E  E  S E  S E  E  E  E     E  E  S E  S E  E  E  E     E  Q    E  Q.     E   
---------------------------|---------------------------|--------------------1--|
---------------------------|---------------------------|-----------------------|
---------------------------|---------------------------|-----2-------3---------|
---------------------------|---------------------------|--0-------0------------|
--2--1--0-1--0-1--2--1--0--|--2--1--0-1--0-1--2--1--0--|-----------------------|
--2--1--0-1--0-1--2--1--0--|--2--1--0-1--0-1--2--1--0--|-----------------------|
Куплет

  E  E  Q    E  E  E  E     E  E  Q    E  Q    E     E  E  Q    H         
--L-------------------1--|--L------------------1--|--L-------------------|
-------------------3-----|------------------------|----------------------|
--------2-------2--------|--------2-------3-------|--------3----2--------|
-----0-------0-----------|-----0-------0----------|-----0----------------|
-------------------------|------------------------|----------------------|
-------------------------|------------------------|----------------------|


  E  Q    E  Q.     E     E  E  Q    E  E  E  E     E  E  Q    E  Q    E   
--------------------1--|--L-------------------1--|--L------------------1--|
-----------------------|-------------------3-----|------------------------|
-----2-------3---------|--------2-------2--------|--------2-------3-------|
--0-------0------------|-----0-------0-----------|-----0-------0----------|
-----------------------|-------------------------|------------------------|
-----------------------|-------------------------|------------------------|


  E  E  Q    H           Q    E  E  E  E  Q       E  E  E  E  E  E  E  E   
--L-------------------|------------------------|--------------------------|
----------------------|------------------------|--------------------------|
--------3----2--------|------------------------|--------------------------|
-----0----------------|--4----4--6--6--6--4----|--L--6--7--7--7--7--7--7--|
----------------------|--4----4--6--6--6--4----|--L--6--7--7--7--7--7--7--|
----------------------|--4----4--6--6--6--4----|--L--6--7--7--7--7--7--7--|


                                         NH  NH  NH  NH  NH  NH  NH  NH 
  Q.     Q.     Q       E  Q.     Q      T   T   T   T   T   T   T   T  
---------------------|-------------------------------------------------|
---------------------|-------------------------------------------------|
---------------------|------------6------------------------------------|
--0------6------0----|--L--7------6------------------------------------|
--0------6------0----|--L--7------4----5-5-5-5-5-5-5-5-|
--0------6------0----|--L--7-------------------------------------------|


  Q    E  E  E  E  Q       E  E  E  E  E  E  E  E     Q.     Q.     Q     
------------------------|--------------------------|---------------------|
------------------------|--------------------------|---------------------|
------------------------|--------------------------|---------------------|
--4----4--6--6--6--4----|--L--6--7--7--7--7--7--7--|--0------6------0----|
--4----4--6--6--6--4----|--L--6--7--7--7--7--7--7--|--0------6------0----|
--4----4--6--6--6--4----|--L--6--7--7--7--7--7--7--|--0------6------0----|


                   NH  NH  NH  NH  NH  NH  NH  NH                            
  E  Q.     Q      T   T   T   T   T   T   T   T    E  E  E  E  E  E  E  E   
-------------------------------------------------|--------------------------|
-------------------------------------------------|--------------------------|
------------6------------------------------------|--------------------------|
--L--7------6------------------------------------|--------------------------|
--L--7------4----5-5-5-5-5-5-5-5-|--0-----------------------|
--L--7-------------------------------------------|--0--0--0--0--0--0--0--0--|


  E  E  E  E  E  Q    E     E  E  E  E  E  E  E  E     E  E  E  E  E  E  E  E   
-------------------------|--------------------------|--------------------------|
-------------------------|--------------------------|--------------------------|
-------------------------|--------------------------|--------------------------|
-------------------------|--------------------------|--------------------------|
-----------------2----4--|--L-----------------------|--------------------------|
--0--0--0--0--0--2----4--|--L--4--4--4--4--4--4--4--|--4--4--4--4--4--4--4--4--|


  E  E  E  E  E  E  E  E     E  E  E  E  E  Q    E     E  E  E  E  E  E  E  E   
--------------------------|-------------------------|--------------------------|
--------------------------|-------------------------|--------------------------|
--------------------------|-------------------------|--------------------------|
--------------------------|-------------------------|--------------------------|
--0-----------------------|-----------------2----4--|--L-----------------------|
--0--0--0--0--0--0--0--0--|--0--0--0--0--0--2----4--|--L--4--4--4--4--4--4--4--|


  E  E  E  E  E  E  E  E     E  E  E  E  E  E  E  E     E  E  E  E  E  Q    E   
--------------------------|--------------------------|-------------------------|
--------------------------|--------------------------|-------------------------|
--------------------------|--------------------------|-------------------------|
--------------------------|--------------------------|-------------------------|
--------------------------|--0-----------------------|-----------------2----4--|
--4--4--4--4--4--4--4--4--|--0--0--0--0--0--0--0--0--|--0--0--0--0--0--2----4--|


  E  E  E  E  E  E  E  E     E  E  E  E  E  E  E  E   
--------------------------|--------------------------|
--------------------------|--------------------------|
--------------------------|--------------------------|
--------------------------|--------------------------|
--L-----------------------|--------------------------|
--L--4--4--4--4--4--4--4--|--4--4--4--4--4--4--4--4--|


  E  E  E  E  E  E  E  E     E  E  E  E  E  Q    E     E  E  E  E  E  E  E  E   
--------------------------|-------------------------|--------------------------|
--------------------------|-------------------------|--------------------------|
--------------------------|-------------------------|--------------------------|
--------------------------|-------------------------|--------------------------|
--0-----------------------|-----------------2----4--|--L-----------------------|
--0--0--0--0--0--0--0--0--|--0--0--0--0--0--2----4--|--L--4--4--4--4--4--4--4--|


  E  E  E  E  E  E  E  E     W                   W                 
--------------------------|-------------------|-------------------|
--------------------------|-------------------|-------------------|
--------------------------|-------------------|-------------------|
--------------------------|-------------------|-------------------|
--------------------------|--0----------------|--L----------------|
--4--4--4--4--4--4--4--4--|--0----------------|--L----------------|


  W                   W                                 
-------------------|-------------------|----|----|----||
-------------------|-------------------|----|----|----||
-------------------|-------------------|----|----|----||
-------------------|-------------------|----|----|----||
--L----------------|--L----------------|----|----|----||
--L----------------|--L----------------|----|----|----||
Добавлено: 16.04.2012
Другие материалы по этой песне:
  • Аккорды и текст

Страница создана 16.04.2012
http://primanota.ru/amatory/dve-zhizni-chords.htm
Привет, Гость.
Предлагаем пройти революционный курс по гитаре.
Подарок от PrimaNota.Ru, забирай!