PrimaNota.ru - самый крупный в мире бесплатный архив песенных текстов, аккордов, табулатур и нот


Amason - Velodrom - аккорды и текст, видео

Регистрация Запомнить меня
Войти через:  Facebook Google Twitter Vk Yandex Mail.ru

Amason - Velodrom - аккорды и текст, видео

Печатать
Просмотров: 151
Уроки эстрадного вокала в Санкт-Петербурге
Velodrom
Amason
I usually play this song with a capo on the 5th fret (makes the sus4 chord easier to play). If you don't want
 to play with a capo you can go to the bottom of this tab where there's a version without capo. 
In that version I skip the sus4 chord to make it easier to play. Wonderful song this by the way!

Capo 5th fret
-------------
The G -> Dsus4 -> D part is a bit tricky. I advice you to listen to the song for correct timing, 
but basically you play the G for 3 beats, the Dsus4 for 2 beats and the D for 3 beats.

Verse
Em  C    G             Dsus4 D     Bm          Em
Bombhot, känns som man bor - de    ta det på riktigt

The thing played between verses: 
e|-------------------------|
B|-------------------------|
G|-------------------0--2--|
D|----------0--2--4--------|
A|-0--2--3-----------------|
E|-------------------------|

Em   C   G        Dsus4  D     Bm           Em
  Tonår, fast i betong - vägg, räknar ett nederlag

e|-------------------------|
B|-------------------------|
G|-------------------0--2--|  x2
D|----------0--2--4--------|
A|-0--2--3-----------------|
E|-------------------------|

Chorus
E                Am
Krig kommer tillbaks, inga drömmar kvar
D                        C
fast med mitt huvud i en velodrom
E                Am
Här kommer ett slag och du menar det
D                       C
verkligen för nu stängs musiken av

B E

Verse
Em  C    G         Dsus4 D          Bm          Em
Höstdag, går efter ras - et där vid smutset i vindarna

e|-------------------------|
B|-------------------------|
G|-------------------0--2--|
D|----------0--2--4--------|
A|-0--2--3-----------------|
E|-------------------------|

Em       C  G          Dsus4  D     Bm        Em
 som liknar fångar som driv - it    in med säsongerna

e|-------------------------|
B|-------------------------|
G|-------------------0--2--|  x2
D|----------0--2--4--------| 
A|-0--2--3-----------------|
E|-------------------------|

Chorus
E                Am
Krig kommer tillbaks, inga drömmar kvar
D                        C
fast med mitt huvud i en velodrom
E                Am
Här kommer ett slag och du menar det
D                       C
verkligen för nu stängs musiken av

Interlude
Melody played by guitar (same as chorus melody sung by Amanda):

e|--------------------------------------------------|
B|--------------------------------------------------|
G|--------------------------------------------------|
D|----------------2-4-5-4-2----2-0-0----0-----------|
A|----------2-3--------------0--------3---3-3-2--2--|
E|-4----4-5-----------------------------------------|

Repeat chorus x2

End on B E




Without capo
------------
Verse
Am  F    C              G       Em          Am
Bombhot, känns som man borde    ta det på riktigt

The thing played between verses: 
e|-------------------------|
B|----------------0--1--3--|
G|----------0--2-----------|
D|-0--2--3-----------------|
A|-------------------------|
E|-------------------------|

Am  F    C          G       Em          Am
  Tonår, fast i betongvägg, räknar ett nederlag

e|-------------------------|
B|----------------0--1--3--|
G|----------0--2-----------|  x2
D|-0--2--3-----------------|  
A|-------------------------|
E|-------------------------|


Chorus
A                Dm
Krig kommer tillbaks, inga drömmar kvar
G                        F
fast med mitt huvud i en velodrom
A                Dm
Här kommer ett slag och du menar det
G                       F
verkligen för nu stängs musiken av

E A


Verse
Am  F    C           G           Em          Am
Höstdag, går efter raset där vid smutset i vindarna

e|-------------------------|
B|----------------0--1--3--|
G|----------0--2-----------|   
D|-0--2--3-----------------|  
A|-------------------------|
E|-------------------------|

Am       F  C             G      Em        Am
 som liknar fångar som drivit    in med säsongerna

e|-------------------------|
B|----------------0--1--3--|
G|----------0--2-----------|  x2
D|-0--2--3-----------------|  
A|-------------------------|
E|-------------------------|


Chorus
A                Dm
Krig kommer tillbaks, inga drömmar kvar
G                        F
fast med mitt huvud i en velodrom
A                Dm
Här kommer ett slag och du menar det
G                       F
verkligen för nu stängs musiken av


Interlude
Melody played by guitar (same as chorus melody sung by Amanda):

e|--------------------------------------------------|
B|--------------------------------------------------|
G|----------------2-4-5-4-2----2-0-0----0-----------|
D|----------2-3--------------0--------3---3-3-2--2--|
A|-4----4-5-----------------------------------------|
E|--------------------------------------------------|

Repeat chorus x2

End on E A
Добавлено: 27.06.2016
Другие материалы по этой песне:
  • Аккорды и текст

Страница создана 27.06.2016
http://primanota.ru/amason/velodrom-chords.htm
Привет, Гость.
Предлагаем пройти революционный курс по гитаре.
Подарок от PrimaNota.Ru, забирай!