PrimaNota.ru - самый крупный в мире бесплатный архив песенных текстов, аккордов, табулатур и нот


Amasic - Lying Is The Solution - таба, видео

Регистрация Запомнить меня
Войти через:  Facebook Google Twitter Vk Yandex Mail.ru

Amasic - Lying Is The Solution - таба, видео

Печатать
Просмотров: 137
I'm not a big fan of this guy but he's a good songwriter and since this is
my favorite song of his and I've seen people ask for tabs of this song
alot, I decided to put things in its place :)

This might also not be 100% correct but it's an excellent start...

LEGEND:
X=Mute
PM=Palm Mute
p=Pull-Off
b=Half Bend
^=Full Bend

Intro: x3

E---------------------------------------------------------------------------|
B-----X-----X----X------------------X----X---X------------------------------|
G-11--X-11--X-11-X----X----X---X-9--X-9--X-9-X----X----X---X----------------|
D-9---X-9---X-9--X-7--X-7--X-7-X-7--X-7--X-7-X-9--X-9--X-9-X----------------|
A-7---X-7---X-7--X-5--X-5--X-5-X-5--X-5--X-5-X-7--X-7--X-7-X----------------|
E------------------3--X-3--X-3-X---------------5--X-5--X-5-X----------------|

                                               PM----------------------------|
E----------------------------------------------------------------------------|
B-----X-----X----X------------------X----X---X-------------------------------|
G-11--X-11--X-11-X----X----X---X-9--X-9--X-9-X-------------------------------|
D-9---X-9---X-9--X-7--X-7--X-7-X-7--X-7--X-7-X-7-7-7-7-7-7-7-7---------------|
A-7---X-7---X-7--X-5--X-5--X-5-X-5--X-5--X-5-X-7-7-7-7-7-7-7-7---------------|
E------------------3--X-3--X-3-X---------------5-5-5-5-5-5-5-5---------------|

Pre-Verse: x2

E---------------------------------------------------------------------------|
B---------------------------------------------------------------------------|
G-12------11-----12-----14-----17------16-----14-----12-----11--------------|
D-X-(x16)-X-(x8)-X-(x3)-X-(x3)-X-(x16)-X-(x8)-X-(x3)-X-(x3)-X-(x1)----------|
A-10------9------10-----12-----15------14-----12-----10-----9---------------|
E---------------------------------------------------------------------------|

Verse: x2

E---------------------------------------------------------------------------|
B-----X-----X----X------------------X----X---X------------------------------|
G-11--X-11--X-11-X----X----X---X-9--X-9--X-9-X----X----X---X----------------|
D-9---X-9---X-9--X-7--X-7--X-7-X-7--X-7--X-7-X-9--X-9--X-9-X----------------|
A-7---X-7---X-7--X-5--X-5--X-5-X-5--X-5--X-5-X-7--X-7--X-7-X----------------|
E------------------3--X-3--X-3-X---------------5--X-5--X-5-X----------------|

In this part of the Verse, every power chord that consists of two or less
notes is PM, those that consist of three notes are played normally. Do this
part of the Verse twice and on the second time you play it, do what's under
it instead of A notes or whatever. (I don't know if that makes sence, but
if you play with the song you should know what I mean).
E---------------------------------------------------------------------------|
B---------------------------------------------------------------------------|
G-------------------------------7-----7~------------------------------------|
D-----2-----2~-----5-----5~-7-7-7------------7-----7~-----------------------|
A-2-2-2--------5-5-5--------5-5-5-555----7-7-7------------------------------|
E-0-0-0-000----3-3-3-333-----------------5-5-5-555--------------------------|

  PM---------------|
D-7-7-7-7-7-7-7-7--|
A-7-7-7-7-7-7-7-7--|
E-5-5-5-5-5-5-5-5--|

Pre-Chorus: x2

E---------------------------------------------------------------------------|
B---------------------------------------------------------------------------|
G-12------11-----12-----14-----17------16-----14-----12-----11--------------|
D-X-(x16)-X-(x8)-X-(x3)-X-(x3)-X-(x16)-X-(x8)-X-(x3)-X-(x3)-X-(x1)----------|
A-10------9------10-----12-----15------14-----12-----10-----9---------------|
E---------------------------------------------------------------------------|

Chorus 1:

E----------------------------|<---Play this twice then play this
B----------------------------|
G-9------5-------------7-----|  G-12-11-12-14-12-11-9-11
D-9-(x8)-5-(x8)-5------7-(x8)|
A-7------3------5-(x8)-5-----|
E---------------3------------|

Bridge 1: I'm not sure how many times this is played, but its goes on...

B-----X-----X----X-|
G-11--X-11--X-11-X-|
D-9---X-9---X-9--X-|
A-7---X-7---X-7--X-|

"I'm tired of him lying to my face"

D-2-2-2-2-2-2-2-2-|
A-2-2-2-2-2-2-2-2-|
E-0-0-0-0-0-0-0-0-|

Bridge 2/Solo 1:

A-10~~~10-9-10~~~10-9-6~~~9-10-9-7-9-10~~~10-9-10~~~10-9-6~~~9-10-9-7-9

After that is the higher part, its played on two guitars but it's extremely
simple to play it on just one

B-12~~~12-10-12~~~12-10-7~~~10-12-10-8-10-(x2)-12~~~~~~~~~~~~~~~~~~~~~~~~~--|
G-12~~~12-11-12~~~12-11-8~~~11-12-11-9-11-(x2)-12~~~~~~~~~~~~~~~~~~~~~~~~~--|

Bridge 3:

                                                   PM------------------------|
E----------------------------------------------------------------------------|
B----------------------------------------------------------------------------|
G--------4------9------7------5--------------------4-4-4-4-4-4-4-4-----------|
D-5------4-(x8)-9-(x4)-7-(x4)-5-(x8)-5------7------4-4-4-4-4-4-4-4-----------|
A-5-(x8)-2------7------5------3------5-(x4)-7-(x4)-2-2-2-2-2-2-2-2-----------|
E-3----------------------------------3------5--------------------------------|

Solo/Solo 2:

E----------------15p12-(x6)-14p12-15p12-17p12-15p12-14p12-15p12-15-15b-15----|
B-12--15p12-(x8)---------------------------------------------------------15--|b
G-14^-------(x8)-------------------------------------------------------------|

E-12-------------------------------------------------------------------------|
B----------------------------------------------------------------------------|
G---14^-12-11-11-11-12-14-12-11-12-11-12-14-12-11-12-11-11-------------------|

E----------------------------|
B---------------------12-12--|
G----------------12-14---14--|
D-----------12-14------------|
A------12-14-----------------|
E-12-15----------------------|

Chorus 2:

E---------------------------------------------------------------------------|
B---------------------------------------------------------------------------|
G-5-------------7------9------5------------12-11-12-14-12-11-9-11-----------|
D-5-(x8)-5------7-(x8)-9-(x8)-5-(x8)-5--------------------------------------|
A-3------5-(x8)-5------7------3------5-(x8)---------------------------------|
E--------3---------------------------3--------------------------------------|

E----------------------------|
B----------------------------|
G-9------5-------------7-----|
D-9-(x8)-5-(x8)-5------7-(x8)|
A-7------3------5-(x8)-5-----|
E---------------3------------|

Outro 1: x4

G-12-11-12-14-12-11-9-11

Outro 2: Play this until the end of the song and slow down towards the
end...

B-----X-----X----X-|
G-11--X-11--X-11-X-|
D-9---X-9---X-9--X-|
A-7---X-7---X-7--X-|

This is the last note played (just incase some of you guys can't tell)

G-11----|
D-9-----|
A-7-----|

That's all there is to it :)
Добавлено: 06.06.2012
Другие материалы по этой песне:
  • Аккорды и текст

Страница создана 06.06.2012
http://primanota.ru/amasic/lying-is-the-solution-chords.htm
Привет, Гость.
Предлагаем пройти революционный курс по гитаре.
Подарок от PrimaNota.Ru, забирай!