PrimaNota.ru - самый крупный в мире бесплатный архив песенных текстов, аккордов, табулатур и нот


Amasic - Breaking Apart - таба, видео

Регистрация Запомнить меня
Войти через:  Facebook Google Twitter Vk Yandex Mail.ru

Amasic - Breaking Apart - таба, видео

Печатать
Просмотров: 178
Уроки эстрадного вокала в Санкт-Петербурге
I haven't seen any tabs for his songs except for Jingle Bells, so I'm going to start 
some tabs for those people who want to learn this guys songs. This is one of my favs by 
and its not 100% correct, but I think its a start.

Tuning: Drop D with all strings tuned half step down

Key of E
____________________________________________________________________________
INTRO-

Clean Guitar w/ Delay
|--------------------------------------------------------------|
|:---0------1-------0-------------0------1--------7------2-0---|
|------0------0---0---0---2-0-------0------0---/5---5-0------0-|
|--2-----2------2-------0-----0-2-----2------2-----------------|
|:-------------------------------------------------------------|
|--------------------------------------------------------------|

|------------------------------------------|
|:---0------1-------0-----------------0---:|
|------0------0---0---0---2-0-------0------| 2x
|-/2-----2------2-------0-----0---2--------|
|:------------------------------7---------:|
|------------------------------------------|
____________________________________________________________________________

PRE-CHORUS


(Guitar 1) w/ Distortion
|---------------------------------------------------|
|---------------------------------------------------|
|---------------------------------------------------|
|--9--9--9-10-10-9-9--9--9-7--7--7-9--9--9-10-10-9--|
|--7--7--7-7--7--7-5--5--5-5--5--5-7--7--7-7--7--7--|
|---------------------------------------------------|
____________________________________________________________________________

(Guitar 1)
|--------------|
|--------------|
|-/11-9--7-9---|
|--------------|
|------------/-|
|------------/-|

(Guitar 2)
|--------------|
|--------------|
|--------------|
|-/12-10-9-10--|
|------------/-|
|------------/-|
____________________________________________________________________________

CHORUS (PART 1)

(Guitar 1)
|----------------------------------------------------|
|:--------------------------------------------------:|
|----------------------------------------------------|
|-9--9--9-10--9--9--9-7---9--9--9-10-p9---7-----5----|2x
|:7--7--7-7---5--5--5-5---7--7--7-7-----5---5\3---3-:|
|----------------------------------------------------|

(Guitar 2)SECOND TIME
|----------------------------------------------------|
|----------------------------------------------------| Theres 2 guitars like
|-------------------------------------/11-9-7-9-7-4--| in the riff similar
|----------------------------------------------------| to this that are
|----------------------------------------------------| playing duel parts.
|----------------------------------------------------| I didn't write out
                                                       2nd part but it's
                                                       easy to figure out.
____________________________________________________________________________

VERSE
(The clean intro riff comes in in the background, but is very hard to hear.)

(Guitar 1)
|---------------------------------|
|---------------------------------|
|---------------------------------|
|---------------------------------| 4x
|-2--2--2-2-----------------------|
|-2--2--2-2-----------------------|
____________________________________________________________________________

RIFF 1 (BEFORE THE SECOND TIME THE CHORUS IS PLAYED)

Guitar 1
|--------------|
|--------------|
|--------------|
|-------9-11---|
|--9-9-------\-|
|------------\-|

Guitar 2
|--------------|
|--------------|
|--------------|
|--------------|
|-10-9-10-12-\-|
|------------\-|
____________________________________________________________________________

AT THE END WHEN THE CHORUS IS PLAYED SEDCOND TIME THROUGH

|--------|
|--------|
|--------|
|--------|
|-2------|
|-2------|
____________________________________________________________________________

BRIDGE

This part is also to soft to really make out what all the notes were. There might be one 
when he plays 3rd fret on the A string instead of 2nd but you can really just 
with this part.

(Guitar 1)Clean w/ Delay

|-----------|
|-------0---|
|-----0-----| REPEAT UNTIL THE END OF BRIDGE
|---0-------|
|-2---------|
|-----------|
____________________________________________________________________________

RIFF 2 (Before the last time through the chorus)

|---------------------------------------------------|
|---------------------------------------------------|
|---------------------------------------------------|
|-4-4-4-4-4-4-4-4-5-5-5-5-5-5-5-5-7-7-7-7-7-7-7-7-7-|
|-2-2-2-2-2-2-2-2-3-3-3-3-3-3-3-3-5-5-5-5-5-5-5-5-5-|
|---------------------------------------------------|
____________________________________________________________________________
OUTRO (After the last time through the chorus)

|-----------|
|-----------|
|-----------|
|-----------|
|-2--2--2-2-|
|-2--2--2-2-|
____________________________________________________________________________

Order:
Intro
Pre-Chorus
Chorus (Part 1)
Verse
Riff 1
Chorus (Part 1)
Chorus (Part 2)
Bridge
Riff 2
Chorus (Part 1)
Chorus (Part 2)
Outro

And thats it! Have fun with it!
Добавлено: 08.03.2012
Другие материалы по этой песне:
  • Аккорды и текст

Страница создана 08.03.2012
http://primanota.ru/amasic/breaking-apart-chords.htm
Привет, Гость.
Предлагаем пройти революционный курс по гитаре.
Подарок от PrimaNota.Ru, забирай!