PrimaNota.ru - самый крупный в мире бесплатный архив песенных текстов, аккордов, табулатур и нот


Amaryllis - Stand Down - бас-таба, видео

Регистрация Запомнить меня
Войти через:  Facebook Google Twitter Vk Yandex Mail.ru

Amaryllis - Stand Down - бас-таба, видео

Печатать
Просмотров: 34
STAND DOWN

intro          
                            H        Q    S S S S  
F#||-------|-------|-------|-------|------------------------|
C#||-------|-------|-------|-------|------------------------|
G#||-------|-------|-------|-------|------------------------|
C#||-------|-------|-------|-------|--0-------------L-3-3-3-|


  H        Q    S S S S    H        H           H        S S S S S S S S  
------------------------|--------------------|---------------------------|
------------------------|--------------------|---------------------------|
------------------------|--------------------|---------------------------|
--0-------------L-3-3-3-|--8--------5--------|--3--------5-5-5-5-5-2-2---|

BAND INTRO

  S S S S S S S S S S S S S S S S    S S S S S S S S S S S S S S S S  
----------------------------------|----------------------------------|
----------------------------------|----------------------------------|
----------------------------------|----------------------------------|
--0-0-0-0-0-0-0-0-0-0-0-0-0-3-3-3-|--3-0-0-0-0-0-0-0-0-0-0-0-0-3-3-3-|

                                                                      
  S S S S S S S S S S S S S S S S    S S S S S S S S S S S S S S S S  
----------------------------------|----------------------------------|
----------------------------------|----------------------------------|
----------------------------------|----------------------------------| 
--3-8-8-8-8-8-8-8-8-5-5-5-5-5-5-5-|--5-3-3-3-3-3-3-3-3-5-5-5-5-2-2-2-|


  S S S S S S S S S S S S S S S S    S S S S S S S S S S S S S S S S  
----------------------------------|----------------------------------|
----------------------------------|----------------------------------|
----------------------------------|----------------------------------|
--2-0-0-0-0-0-0-0-0-0-0-0-0-3-3-3-|--3-0-0-0-0-0-0-0-0-0-0-0-0-3-3-3-|


  S S S S S S S S S S S S S S S S    S S S S S S S S S S S S S S S S  
----------------------------------|----------------------------------|
----------------------------------|----------------------------------|
----------------------------------|----------------------------------|
--3-8-8-8-8-8-8-8-8-5-5-5-5-5-5-5-|--5-3-3-3-3-3-3-3-3-5-5-5-5-2-2-2-|



VERSE
  S S S S S S S S S S S S S S S S    S S S S S S S S S S S S S S S S  
----------------------------------|----------------------------------|
----------------------------------|----------------------------------|
----------------------------------|----------------------------------|
----0-0-0-0-0-0-0---0-0-0-0-0-0-0-|----0-0-0-0-0-0-0---0-0-0-0-0-0-0-|

                                                                        X2
  S S S S S S S S S S S S S S S S    S S S S S S S S S S S S S S S S  
----------------------------------|----------------------------------|
----------------------------------|----------------------------------|
----------------------------------|------------------3-3-3-3-3-3-3-3-|
--8-8-8-8-8-8-8-8-5-5-5-5-5-5-5-5-|--8-8-8-8-8-8-8-8-----------------|


PRE-CHORUS

  S S E  S S S S S S E  S S S S    S S E  S S S S S S E  S S S S  
--------------------------------|--------------------------------|
--------------------------------|--------------------------------|
--------------------------------|--------------------------------|
--0-0-0----0---0-0-0-0----0---0-|--8-8-8----8---8-5-5-5----5---5-|


  S S E  S S S S S S E  S S S S    S S E  S S S S S S S S S  S  S S  
--------------------------------|-----------------------------------|
--------------------------------|-----------------------------------|
--------------------------------|-----------------------------------|
--0-0-0----0---0-0-0-0----0---0-|--8-8-8----8---8-5-5-5-5-5-14-14---|

CHORUS

  S S S S S S S S S S S S S S S S    S S S S S S S S S S S S S S S S  
----------------------------------|----------------------------------|
----------------------------------|----------------------------------|
----------------------------------|----------------------------------|
--0-0-0-0-0-0-0-0-0-0-0-0-0-0-0-0-|--8-8-8-8-8-8-8-8-5-5-5-5-5-5-5-5-|


  S S S S S S S S S S S S S S S S    S S S S S S S S S S S S S S S S  
----------------------------------|----------------------------------|
----------------------------------|----------------------------------|
----------------------------------|----------------------------------|
--0-0-0-0-0-0-0-0-0-0-0-0-0-0-0-0-|--8-8-8-8-8-8-8-8-5-5-5-5-5-5-5-5-|


  S S E  S S S S S S E  S S S S    S S E  S S S S S S E  S S S S  
--------------------------------|--------------------------------|
--------------------------------|--------------------------------|
--------------------------------|--------------------------------|
--0-0-0----0---0-0-0-0----0---0-|--8-8-8----8---8-5-5-5----5---5-|


  S S E  S S S S S S E  S S S S    S S E  S S S S S S S S S S S S  
--------------------------------|---------------------------------|
--------------------------------|---------------------------------|
--------------------------------|---------------------------------|
--0-0-0----0---0-0-0-0----0---0-|--8-8-8----8---8-5-5-5-5-5-5-5-5-|

VERSE

PRE-CHORUS

CHORUS


Bridge
  W                   W                   E  E  E  S E  S S S E  E   
-------------------|-------------------|----------------------------|
-------------------|-------------------|----------------------------|
-------------------|-------------------|----------------------------|
--0----------------|--L----------------|--0--0-------0--0-0---------|


  E  E  E  S E  S S S E  E     E  E  E  S E  S S S E  E   
----------------------------|----------------------------|
----------------------------|----------------------------|
----------------------------|----------------------------|
--0--0-------0--0-0---------|--8--8-------8--8-8---------|


  E  E  E  S E  S S S E  E     E  E  E  S E  S S S E  E   
----------------------------|----------------------------|
----------------------------|----------------------------|
----------------------------|----------------------------|
--7--7-------7--7-7---------|--0--0-------0--0-0---------|


  E  E  E  S E  S S S E  E     S S S S S S S S S S S S S S S S  
----------------------------|----------------------------------|
----------------------------|----------------------------------|
----------------------------|----------------------------------|
--0--0-------0--0-0---------|--0-0-0-0-0-0-0-0-0-0-0-0-0-0-0-3-|


  S S S S S S S S S S S S S S S S    S S S S S S S S S S S S S S S S  
----------------------------------|----------------------------------|
----------------------------------|----------------------------------|
----------------------------------|----------------------------------|
--0-0-0-0-0-0-0-0-0-0-0-0-0-0-0-3-|--0-0-0-0-0-0-0-0-0-0-0-0-0-0-0-3-|


  S S S S S S S S S S S S S S S S       
----------------------------------|----|
----------------------------------|----|
----------------------------------|----|
--0-0-0-0-0-0-0-0-0-0-0-0-0-0-0-0-|----|


OUTRO
  S S S S  S  S S S S S S S  S  S  S  S  
----------------------------------------|
----------------------------------------|
----------------------------------------| x8
--0-0-0---12-12---0---0---0-12-12-12-12-|


  PM                
  W                 
-------------------|
-------------------|
-------------------|
--0----------------|
Добавлено: 04.12.2015
Вам также может быть интересно:
Другие материалы по этой песне:

Страница создана 30.11.2014
http://primanota.ru/amaryllis/stand-down-chords.htm
Привет, Гость.
Предлагаем пройти революционный курс по гитаре.
Подарок от PrimaNota.Ru, забирай!