PrimaNota.ru - самый крупный в мире бесплатный архив песенных текстов, аккордов, табулатур и нот


Amaryllis - Kings - бас-таба, видео

Регистрация Запомнить меня
Войти через:  Facebook Google Twitter Vk Yandex Mail.ru

Amaryllis - Kings - бас-таба, видео

Печатать
Просмотров: 35
KINGS

INTRO                
F#|-------------------|-------------------|-------------------|-------------------|
C#|-------------------|-------------------|-------------------|-------------------|
G#|-------------------|-------------------|--3----------------|--0----------------| X2
C#|--2----------------|--0----------------|-------------------|-------------------|

F#|-------------------|-------------------|-------------------|-------------------|
C#|-------------------|-------------------|-------------------|-------------------|
G#|-------------------|-------------------|--3-(X8)-----------|--0-(X8)-----------| X2
C#|--2-(X8)-----------|--0-(X8)-----------|-------------------|-------------------|

  
2ND INTRO
|----------------------|
|----------------------|
|----------------------|
|--0--0----------------|


  W                   W                   H        E  E  E  E   
-------------------|-------------------|-----------------------|
-------------------|-------------------|-----------------------|
-------------------|-------------------|-----------3--3--3--3--|
-------------------|-------------------|-----------------------|


  W                   W                   H        Q    E  E   
-------------------|-------------------|----------------------|
-------------------|-------------------|----------------------|
-------------------|-------------------|----------------------|
-------------------|-------------------|-------------------0--|


  W                   E  E  E  E  E  E  E  E     E  E  E  E  E  E  E  E   
-------------------|--------------------------|--------------------------|
-------------------|--------------------------|--------------------------|
-------------------|--------------------------|--------------------------|
--L----------------|-----0--2--0--2--0-----5--|-----2-----0--2--0--2-----|


  E  E  E  E  E  E  E  E     E  E  E  E  E  E  E  E   
--------------------------|--------------------------|
--------------------------|--------------------------|
--------------------------|--------------3--3--3--3--|
-----0--2--0--2--0-----5--|-----2-----0--------------|


  E  E  E  E  E  E  E  E     E  E  E  E  E  E  E  E   
--------------------------|--------------------------|
--------------------------|--------------------------|
--------------------------|--------------------------|
-----0--2--0--2--0-----5--|-----2-----0--2--0--2-----|


  E  E  E  E  E  E  E  E     W  
--------------------------|-------------------|
--------------------------|-------------------|
--------------------------|-------------------|
-----0--2--0--2--0--0--0--|--L----------------|



VERSE

  E  E  E  E  E  E  E  E     E  E  E  E  E  E  Q       E  E  E  E  E  E  E  E     E  E  E  E  E  E  E  E   
--------------------------|-------------------------|--------------------------|--------------------------|
--------------------------|-------------------------|--------------------------|--------------------------|
--------------------------|-------------------------|--------------------------|--------------------------| X2
-----2--2--2--2--2--2--5--|-----5-----5-----5-------|-----0--0--0--0--0--0--7--|-----7-----7--5--7--5-----|


                               EXTRA NOTE ON THIS REP
  E  E  E  E  E  E  E  E      E  E  E  E  E  E  E  E     E  E  E  E  E  E  E  E     E  E  E  E  E  E  E  E    
|--------------------------|--------------------------|--------------------------|--------------------------|
|--------------------------|--------------------------|--------------------------|--------------------------|
|--------------------------|--------------------------|--------------------------|--------------------------| x2
|-----2--2--2--2--2--2--5--|-----5-----5-----5-----5--|-----0--0--0--0--0--0--7--|-----7-----7--5--7--5-----|




CHORUS


F#|-------------------|-------------------|-------------------|-------------------|
C#|-------------------|-------------------|-------------------|-------------------|
G#|-------------------|-------------------|--3-(X8)-----------|--0-(X8)-----------| X2
C#|--2-(X8)-----------|--0-(X8)-----------|-------------------|-------------------|



VERSE

  E  E  E  E  E  E  E  E     E  E  E  E  E  E  Q       E  E  E  E  E  E  E  E     E  E  E  E  E  E  E  E   
--------------------------|-------------------------|--------------------------|--------------------------|
--------------------------|-------------------------|--------------------------|--------------------------|
--------------------------|-------------------------|--------------------------|--------------------------| X2
-----2--2--2--2--2--2--5--|-----5-----5-----5-------|-----0--0--0--0--0--0--7--|-----7-----7--5--7--5-----|


                               EXTRA NOTE ON THIS REP
  E  E  E  E  E  E  E  E      E  E  E  E  E  E  E  E     E  E  E  E  E  E  E  E     E  E  E  E  E  E  E  E    
|--------------------------|--------------------------|--------------------------|--------------------------|
|--------------------------|--------------------------|--------------------------|--------------------------|
|--------------------------|--------------------------|--------------------------|--------------------------| x2
|-----2--2--2--2--2--2--5--|-----5-----5-----5-----5--|-----0--0--0--0--0--0--7--|-----7-----7--5--7--5-----|



CHORUS

F#|-------------------|-------------------|-------------------|-------------------|
C#|-------------------|-------------------|-------------------|-------------------|
G#|-------------------|-------------------|--3-(X8)-----------|--0-(X8)-----------| X2
C#|--2-(X8)-----------|--0-(X8)-----------|-------------------|-------------------|


BRIDGE

  Q    E  E  E  E  E  E     E  E  E  E  E  E  Q       Q    E  E  E  E  E  E    E  
-------------------------|-------------------------|-------------------------|--------|
-------------------------|-------------------------|-------------------------|--------|
-------------3--3--------|--------------3--3-------|-------------3--3--3-----|--------| x4
--2----2--0--------0--2--|--L--2--2--0--------0----|--2----2--0-----------0--|-0-(x8)-|


 CHORUS
F#|-------------------|-------------------|-------------------|-------------------|
C#|-------------------|-------------------|-------------------|-------------------|
G#|-------------------|-------------------|--3-(X8)-----------|--0-(X8)-----------| X2
C#|--2-(X8)-----------|--0-(X8)-----------|-------------------|-------------------|


OUTRO 
|-------------------------|-------------------------|-------------------------|--------|
|-------------------------|-------------------------|-------------------------|--------| x2
|-------------3--3--------|--------------3--3-------|-------------3--3--3-----|--------|
|--2----2--0--------0--2--|--L--2--2--0--------0----|--2----2--0-----------0--|-0-(x8)-|



Duration Legend
---------------
W - whole
H - half
Q - quarter
E - 8th
S - 16th
T - 32nd
X - 64th
. - note dotted
|-n-|  - n-tuplets
Добавлено: 04.12.2015
Вам также может быть интересно:
Другие материалы по этой песне:

Страница создана 05.12.2014
http://primanota.ru/amaryllis/kings-chords.htm
Привет, Гость.
Предлагаем пройти революционный курс по гитаре.
Подарок от PrimaNota.Ru, забирай!