PrimaNota.ru - самый крупный в мире бесплатный архив песенных текстов, аккордов, табулатур и нот


Amarna Reign - Deceiver - таба, видео

Регистрация Запомнить меня
Войти через:  Facebook Google Twitter Vk Yandex Mail.ru

Amarna Reign - Deceiver - таба, видео

Печатать
Просмотров: 150
Song:   Deceiver
Album:  Atonement
Band:   Amarna Reign
Tuning: Drop B
Tabbed by:
Cj Crovo

Relearned it differently, sounds ten times better. 

Guitar 1
|------------------------------------------15-------------|
|-----15----15-17----15-17-18----15-17-18-----18-17-15-14-|
|--14----14-------14----------14--------------------------|
|---------------------------------------------------------|
|---------------------------------------------------------|
|---------------------------------------------------------|
   Repeat As Many Time As In The Song
|----17-18-15-17 -----------------------------------------|
|-15-------------18-17-18-17-15-14-------15-17------------|
|----------------------------------15-14-------15-14------|
|---------------------------------------------------------|
|---------------------------------------------------------|
|---------------------------------------------------------|

Guitar 2
|-----------------------------------------------------------------|
|-----------------------------------------------------------------|
|-----------------------------------------------------------------|
|-----------------------------------------------------------------|
|-0-0-000-0-00-000-000-0-00000-0-00-0-0-000-000-0-0-000-----------|
|-0-0-000-0-00-000-000-0-00000-0-00-0-0-000-000-0-0-000-[snare]---|
  . . ... . .. ... ... . ..... . .. . . ... ... . . ...
Breakdown was way more confusing than I previously thought.
Добавлено: 23.03.2012
Другие материалы по этой песне:

Страница создана 04.03.2012
http://primanota.ru/amarna-reign/deceiver-chords.htm
Привет, Гость.
Предлагаем пройти революционный курс по гитаре.
Подарок от PrimaNota.Ru, забирай!