PrimaNota.ru - самый крупный в мире бесплатный архив песенных текстов, аккордов, табулатур и нот


Amaranthe - Infinity - текст песни, таба, видео

Регистрация Запомнить меня
Войти через:  Facebook Google Twitter Vk Yandex Mail.ru

Amaranthe - Infinity - текст песни, таба, видео

Печатать
Просмотров: 289
-----------------------------------------------------------------------------
                             Infinity - Amaranthe
-----------------------------------------------------------------------------

Tabbed by: CorSanctus
E-mail: dominus.vitus@gmx.de

Tuning: C-G-C-F-A-D


d|--------------------------------------------------------------------------|
A|------------------------15-17-17b18r17~-15-13-10--------------13----------|
F|---------------14-15-17--------------------------12-10-12b14----14br12----|
C|--------14-15-17----------------------------------------------------------|
G|--15-17-------------------------------------------------------------------|
C|--------------------------------------------------------------------------|

                                                           T
d|--------------------------------17-15-13-12----------12h17p15p12----------|
A|--------------------------------------------13----13-------------13----13-|
F|--10-12-10-------------------------------------12-------------------12----|
C|-----------12-10----------------------------------------------------------|
G|-----------------12-10----------------------------------------------------|
C|-----------------------10-8-7~--------------------------------------------|

       T
d|-12h20p15p12------------------------------20-----24b26r24~-22-20~---------|
A|-------------13---------------------17-18----17---------------------------|
F|----------------12--------------------------------------------------------|
C|--------------------------------------------------------------------------|
G|-------------------15-14-10~----------------------------------------------|
C|--------------------------------------------------------------------------|

d|--18h20p18-------20-------------------------------------------------------|
A|-----------18b20----20br18--18-20~---14----------17----17----17s19--17h19-|
F|----------------------------------------17-14-15----14----14--------------|
C|--------------------------------------------------------------------------|
G|--------------------------------------------------------------------------|
C|--------------------------------------------------------------------------|

d|--------------------------------------13-15-17~~--------------------------|
A|-----------------------------13-15-17-------------------------------------|
F|--------------------12-14-15----------------------------------------------|
C|-----------12-14-15-------------------------------------------------------|
G|--12-13-15----------------------------------------------------------------|
C|--------------------------------------------------------------------------|




************************************

| /   slide up
| \   slide down
| h   hammer-on
| p   pull-off
| T   Tapping
| ~   vibrato
| +   harmonic
| x   Mute note
| b   Bend
| pb  Pre-bend
| br  Bend release
| pbr Pre-bend release
| brb Bend release bend

************************************
Добавлено: 12.08.2013
Другие материалы по этой песне:
  • Аккорды и текст

Страница создана 12.08.2013
http://primanota.ru/amaranthe/infinity-chords.htm
Привет, Гость.
Предлагаем пройти революционный курс по гитаре.
Подарок от PrimaNota.Ru, забирай!