PrimaNota.ru - самый крупный в мире бесплатный архив песенных текстов, аккордов, табулатур и нот


Amaranthe - Drop Dead Cynical - таба, видео

Регистрация Запомнить меня
Войти через:  Facebook Google Twitter Vk Yandex Mail.ru

Amaranthe - Drop Dead Cynical - таба, видео

Печатать
Просмотров: 196
Уроки эстрадного вокала в Санкт-Петербурге
Авторы: Olof Mörck, Joacim Lundberg, Elize Ryd

-------------------------------------------------------------------------------
                        DROP DEAD CYNICAL - Amaranthe
-------------------------------------------------------------------------------
Tabbed by: GaleForceRock
E-mail: galeforce100@icloud.com

Tuning: B Standard

Also see my more comprehensive Guitar Pro tab of this song.

Intro/Verse (Repeated without ending)
B |-------------------------------------------------------------------------------------|
F#|-------------------------------------------------------------------------------------|
D |---------------------------------------------------------------------------5---------|
A |-2--2------------2--2-----------------------2--2------------2--2------5----5----5----|
E |-2--2------------2--2-----------------0-5-7-2--2------------2--2------5----3----5----|
B |-0--0----0-0-0-0-0--0----0-0--0-3-0-5-------0--0----0-0-0-0-0--0----0-3--0----0-3--0-|
            * * * *         * *  *                     * * * *         *    *    *    *
Riff
B |--------------------------------------------------------------------------------------|
F#|--------------------------------------------------------------------------------------|
D |--------------------------------------------------------------------------------------|
A |-2--2------------2--2------------2--2-------7--7------------7--7-4--4------4----------|
E |-2--2--------5-7-2--2--------5-7-2--2---5-7-5--5----5-5-5-5-5--5-2--2----2-2--2-0-2---|
B |-0--0----0-0-----0--0----0-0-----0--0-0---------------------------------------------3-|
            * *             * *          *             * * * *                   *
Chorus (Figure out strumming)
B |----------------|
F#|----------------|
D |--------7---4---|
A |-2------7---4---|
E |-2------5---2---|
B |-0--------------|

Bridge
B |-------------------------------|
F#|-------------------------------|
D |-------------------------------|
A |-3--3--3-2----3--3--3-2--7--9--|
E |-3--3--3-2----3--3--3-2--5--7--|
B |-1--1--1-0----1--1--1-0--------|

Thanks for reading the tab, please rate and comment corrections!

************************************

| *   palm mute
| /   slide up
| \   slide down
| h   hammer-on
| p   pull-off
| ~   vibrato
| +   harmonic
| x   Mute note
| b   Bend
| pb  Pre-bend
| br  Bend release
| pbr Pre-bend release
| brb Bend release bend

************************************
Добавлено: 23.10.2015
Другие материалы по этой песне:

Страница создана 13.11.2014
http://primanota.ru/amaranthe/drop-dead-cynical-chords.htm
Привет, Гость.
Предлагаем пройти революционный курс по гитаре.
Подарок от PrimaNota.Ru, забирай!