PrimaNota.ru - самый крупный в мире бесплатный архив песенных текстов, аккордов, табулатур и нот


Amaranthe - Call Out My Name - таба, видео

Регистрация Запомнить меня
Войти через:  Facebook Google Twitter Vk Yandex Mail.ru

Amaranthe - Call Out My Name - таба, видео

Печатать
Просмотров: 250
Авторы музыки: Jake E, Olof Mörck
Авторы текста: Jake E, Olof Mörck
Amaranthe
Call Out My Name

Tune: C Drop

h - Hammer on
p - Pull off
/ - slide up
\ - slide down
. - Palm mute
~ - Vibrato
ph- Pinch harmonic


|-----------------------------------------------------------------------|
|-----------------------------------------------------------------------|
|-----------------------------------------------------------------------|
|-7---------------------------------------------------------------------|
|-7------12\------------------------------------------------------------|
|-7------12\------------------------------------------------------------|

Main riff 1
|-----------------------------------------------------------------------|
|-----------------------------------------------------------------------|
|-----------------------------------------------------------------------|
|-0--0----------0--0----------8--8-----------5-----10-------------------|
|-0--0--0-0-0-0-0--0--0-0-0-0-8--8---8-8-8-8-5-555-10-101010------------|
|-0--0--0-0-0-0-0--0--0-0-0-0-8--8---8-8-8-8-5-555-10-101010------------|
        . . . .       . . . .        . . . .   ...    . . .

|-----------------------------------------------------------------------|
|-----------------------------------------------------------------------|
|-----------------------------------------------------------------------|
|-0--0----------5-------------------------------------------------------|
|-0--0--0-0-0-0-5-5-5-5-5-5-5-5/8-8-8-8-8-8-8-8\7-----------------------|
|-0--0--0-0-0-0-5-5-5-5-5-5-5-5/8-8-8-8-8-8-8-8\7-----------------------|
        . . . .   . . . . . .     . . . . . .

Main riff 2
|-----------------------------------------------------------------------|
|-----------------------------------------------------------------------|
|-----------------------------------------------------------------------|
|---------------------------------5---8--8--8---------------------------|
|-0000--0000--0-000--0000--0-000--5---8--8--8---------------------------|
|-0000--0000--0-000--0000--0-000--5---8--8--8---------------------------|
  ....  ....  . ...  ....  . ...      .  .  .


|-----------------------------------------------------------------------|
|-----------------------------------------------------------------------|
|-----------------------------------------------------------------------|
|-------------------------5---------------------------------------------|
|-0000--0000--0-000--0000-5---------------------------------------------|
|-0000--0000--0-000--0000-5---------------------------------------------|
  ....  ....  . ...  ....   (^here's missing something)

Bridge
|-----------------------------------------------------------------------|
|-----------------------------------------------------------------------|
|-----------------------------------------------------------------------|
|-5----10----7----0----5----3----7--------------------------------------|
|-5----10----7----0----5----3----7--------------------------------------|
|-5----10----7----0----5----3----7--------------------------------------|


Chorus X2
|-----------------------------------------------------------------------|
|-----------------------------------------------------------------------|
|-----------------------------------------------------------------------|
|-5-5-5-5-5-5-5-5-5-5-5-5-5-5-5-5-8-8-8-8-8-8-8-8-3-3-3-3-3-0-3-0-------|
|-5-5-5-5-5-5-5-5-5-5-5-5-5-5-5-5-8-8-8-8-8-8-8-8-3-3-3-3-3-0-3-0-------|
|-5-5-5-5-5-5-5-5-5-5-5-5-5-5-5-5-8-8-8-8-8-8-8-8-3-3-3-3-3-0-3-0-------|



|-----------------------------------------------------------------------|
|-----------------------------------------------------------------------|
|-----------------------------------------------------------------------|
|-5-5-5-5-5-5-5-5-5-5-5-5-5-5-5-5-1010101010101010-3-3-3-3--------------|
|-5-5-5-5-5-5-5-5-5-5-5-5-5-5-5-5-1010101010101010-3-3-3-3--------------|
|-5-5-5-5-5-5-5-5-5-5-5-5-5-5-5-5-1010101010101010-3-3-3-3-10-8-7-0-----|
                                                           .  . . .


second time chorus ending is
|-----------------------------------------------------------------------|
|-----------------------------------------------------------------------|
|-----------------------------------------------------------------------|
|-5-5-5-5-5-5-5-5-5-5-5-5-5-5-5-5-1010101010101010-3-3-3-3-3-3-3-3------|
|-5-5-5-5-5-5-5-5-5-5-5-5-5-5-5-5-1010101010101010-3-3-3-3-3-3-3-3------|
|-5-5-5-5-5-5-5-5-5-5-5-5-5-5-5-5-1010101010101010-3-3-3-3-3-3-3-3------|


Main riff 2
Bridge
Chorus X2


|-----------------------------------------------------------------------|
|-----------------------------------------------------------------------|
|-----------------------------------------------------------------------|
|-0--0----------0--0----------8--8-----------5-----10-------------------|
|-0--0--0-0-0-0-0--0--0-0-0-0-8--8---8-8-8-8-5-555-10-101010------------|
|-0--0--0-0-0-0-0--0--0-0-0-0-8--8---8-8-8-8-5-555-10-101010------------|
        . . . .       . . . .        . . . .   ...    . . .


|-----------------------------------------------------------------------|
|-----------------------------------------------------------------------|
|-----------------------------------------------------------------------|
|-0--0----------5-------------------------------------------------------|
|-0--0--0-0-0-0-5-5-5-5-5-5-5-5/8-8-8-8-8-8-8-8\7-7-7-7-7-7-7-7---------|
|-0--0--0-0-0-0-5-5-5-5-5-5-5-5/8-8-8-8-8-8-8-8\7-7-7-7-7-7-7-7---------|
        . . . .   . . . . . .     . . . . . .     . . . . . . .


|-----------------------------------------------------------------------|
|-----------------------------------------------------------------------|
|-----------------------------------------------------------------------|
|-0---0---0---------0---0-----------------------------------------------|
|-0---0---0---------0---0-----1-0---------------------------------------|
|-0-0-0-0-0-0-0-0-0-0-0-0-0-3-------------------------------------------|
    .   .   . . . .

|-----------------------------------------------------------------------|
|-----------------------------------------------------------------------|
|-----------------------------------------------------------------------|
|-0---0---0-------------------------------------------------------------|
|-0---0---0-----0-------------------------------------------------------|
|-0-0-0-0-0-0-0-0-1-3-1-3-5-7-8-10--------------------------------------|
    .   .   . .  

|-----------------------------------------------------------------------|
|-----------------------------------------------------------------------|
|-----------------------------------------------------------------------|
|-0---0---0-------------0---0---0---------------------------------------|
|-0---0---0-------------0---0---0---------------------------------------|
|-0-0-0-0-0-000-0-8p0-0-0-0-0-0-0---------------------------------------|
    .   .   ... .     .   .   .

|-----------------------------------------------------------------------|
|-----------------------------------------------------------------------|
|-----------------------------------------------------------------------|
|-5-5--5-5--5-5------8-8--8-8--7-7--7-7--0------------------------------|
|-5-5--5-5--5-5-5-5--8-8--8-8--7-7--7-7--0------------------------------|
|-5-5--5-5--5-5-5-5--8-8--8-8--7-7--7-7--0 -----------------------------|



|-----------------------------------------------------------------------|
|-----------------------------------------------------------------------|
|-----------------------------------------------------------------------|
|-5-5-5-5-5-5-5-5-5-5-5-5-5-5-5-5-8-8-8-8-8-8-8-8-3-3-3-3-3-0-3-0-------|
|-5-5-5-5-5-5-5-5-5-5-5-5-5-5-5-5-8-8-8-8-8-8-8-8-3-3-3-3-3-0-3-0-------|
|-5-5-5-5-5-5-5-5-5-5-5-5-5-5-5-5-8-8-8-8-8-8-8-8-3-3-3-3-3-0-3-0-------| 



|-----------------------------------------------------------------------|
|-----------------------------------------------------------------------|
|-----------------------------------------------------------------------|
|-5-5-5-5-5-5-5-5-5-5-5-5-5-5-5-5-1010101010101010-3-3-3-3--------------|
|-5-5-5-5-5-5-5-5-5-5-5-5-5-5-5-5-1010101010101010-3-3-3-3--------------|
|-5-5-5-5-5-5-5-5-5-5-5-5-5-5-5-5-1010101010101010-3-3-3-3-10-8-7-0-----|
                                                        

last time chorus ends:
|-----------------------------------------------------------------------|
|-----------------------------------------------------------------------|
|-----------------------------------------------------------------------|
|-5-5-5-5-5-5-5-5-5-5-5-5-5-5-5-5-1010101010101010-3-3-3-3-3-3-3-3------|
|-5-5-5-5-5-5-5-5-5-5-5-5-5-5-5-5-1010101010101010-3-3-3-3-3-3-3-3------|
|-5-5-5-5-5-5-5-5-5-5-5-5-5-5-5-5-1010101010101010-3-3-3-3-3-3-3-3------|


|-----------------------------------------------------------------------|
|-----------------------------------------------------------------------|
|-----------------------------------------------------------------------|
|-------------------5---------------------------------------------------|
|-0-10-8-7-0-10-8-7-5---------------------------------------------------|
|-0-10-8-7-0-10-8-7-5---------------------------------------------------|
  . .  . . . .  . .
Добавлено: 24.02.2012
Другие материалы по этой песне:

Страница создана 24.02.2012
http://primanota.ru/amaranthe/call-out-my-name-chords.htm
Привет, Гость.
Предлагаем пройти революционный курс по гитаре.
Подарок от PrimaNota.Ru, забирай!