PrimaNota.ru - самый крупный в мире бесплатный архив песенных текстов, аккордов, табулатур и нот


Amarante - The Travelers - аккорды и текст, видео

Регистрация Запомнить меня
Войти через:  Facebook Google Twitter Vk Yandex Mail.ru

Amarante - The Travelers - аккорды и текст, видео

Печатать
Просмотров: 109
The Travelers
Amarante
------------------------
The Travelers - Amarante
------------------------

capo 6th fret 

chords:
Em (022000)
A  (x02220)
G  (35540x)

strumming pattern for first part:
      Em      A
|-----0-------0--------|
|-----0-------2--------|
|-----0-------2--------|
|-----2-------2--------|
|-----2-------0--------|
|--0--0----0-----------|

Em    A   2x

Em          A
   Sun goes down
Em             A
   I just want to
Em                A       Em   A
   Spend my night with you

Em           A
   Sun comes up
Em             A
   I just want to
Em              A       Em   A
   Spend my day with you

Em    A    Em    A
Ooooooooooooooooooooooooh
Em    A      Em     A
Ooooooooooooooooooh

Em           A
   Sometimes I
Em             A
   I just want to
Em           A            Em   A
   Live in silence with you

Em    A    Em    A
Ooooooooooooooooooooooooh
Em    A      Em     A
Ooooooooooooooooooh

Em    A   3x
Em

there are 2 guitars in this interlude:

[ guitar 1 plays:
[|--0-0-0-0-0-0-0-0-0-0-0-0-0-0-0-0-0-0-0-|
[|-0-0-0-0-0-0-0-0-0-0-0-0-0-0-0-0-0-0-0--|
[|----------------------------------------|
[|----------------------------------------|
[|----------------------------------------|
[|----------------------------------------|
[                                                      2x
[ while guitar 2 plays underneath:
[|----------------------------------------|
[|-------2-0-------------2-0--------------|
[|---------------2-0---------0-2-2/4-2----|
[|---0-2-----0-2-----0-2------------------|
[|----------------------------------------|
[|----------------------------------------|

I don't know where we are traveling
I don't know where we are traveling
                               G        A     Em       G   A
The world's a journey that's unravelling this day

Em                                G       A
I don't know where this road will lead us
Em                             G       A
The wind through our hair will free us
Em                      G      A         Em       G   A
A trip to nowhere might save us from the noise

Em                           G         A
Jump in the car and let's forget it all
Em                         G          A
The world that wants to consume it all
Em                           G         A
Jump in the car and let's forget it all
Em                         G          A
The world that wants to consume it all

Em
Sunbeams on your face and
G         A
  The air we can taste
  Em                      G   A
A new day in front of us

Em
Let's open up our mind and 
G       A
Free ourselves some time
      Em                 G   A
We'll clean out our lives

Em
Sunbeams on your face and
G         A
  The air we can taste
  Em                      G   A
A new day in front of us

Em
Let's open up our mind and 
G       A
Free ourselves some time
      Em                 G   A
We'll clean out our lives

Em

--------------
h = hammer on
/ = slide
--------------
Добавлено: 30.05.2016
Другие материалы по этой песне:
  • Аккорды и текст

Страница создана 30.05.2016
http://primanota.ru/amarante/travelers-chords.htm
Привет, Гость.
Предлагаем пройти революционный курс по гитаре.
Подарок от PrimaNota.Ru, забирай!