PrimaNota.ru - самый крупный в мире бесплатный архив песенных текстов, аккордов, табулатур и нот


Amarante - Dont Look Back - таба, видео

Регистрация Запомнить меня
Войти через:  Facebook Google Twitter Vk Yandex Mail.ru

Amarante - Dont Look Back - таба, видео

Печатать
Просмотров: 176
Уроки эстрадного вокала в Санкт-Петербурге
-------------------------------------------------------------------------------
                             Don't Look Back - Amarante
-------------------------------------------------------------------------------
Tabbed by: Kat

Tuning:standard
capo: 1

I'm not finished with this yet but I'll add the times and other things later

  Intro:
  C                        Am                         Em    
e|---------------------------------------------------------------------------|
B|----------1-------------------------0-------------------------0------------|
G|------------0-------------------------0-------------------------0----------|
D|--2---2---------2---2-------2---2---------2---2-------2---2---------2---2--|
A|3---3---3-----3---3---3-2-0---0---0-----0---0---0-0------------------------|
E|----------------------------------------------------0---0---0-----0---0---0|

  Em
e|---------------------------------------------------------------------------|
B|---------------0-----------------------------------------------------------|
G|-----------------0---------------------------------------------------------|
D|2---2---2---2--------2---2---2---------------------------------------------|
A|---------------------------------------------------------------------------|
E|--0---0---0---0----0---0---0-----------------------------------------------|

  Verse:  
  C                             Am                           Em       
e|---------------------------------------------------------------------------|
B|----------1-----------------------------0-----------------------------0----|
G|------------0-----------------------------0-----------------------------0--|
D|--2---2---------2---2---2---2---2---2---------2---2---2---2---2---2--------|
A|3---3---3-----3---3---3---3---0---0---0-----0---0---0---0------------------|
E|------------------------------------------------------------0---0---0------|

  Em                          
e|---------------------------------------------------------------------------|
B|------------------------------0--------------------------------------------|
G|--------------------------------0------------------------------------------|
D|--2---2---2---2---2---2---2---------2---2---2------------------------------|
A|---------------------------------------------------------------------------|
E|0---0---0---0---0---0---0---0-----0---0---0--------------------------------|
                                         (repeat till "Knock you down" - 1:14)
  
  Chorus: 
  C                         Am                       Em
e|---------------------------------------------------------------------------|
B|----------1--------------------------0-------------0---------0-------------|
G|------------0--------------------------0-----------------------0-----------|
D|--2---2----------2---2-------2---2---------2---2-----2---2---------2---2---|
A|3---3---3------3---3---3/2p0---0---0-----0---0---0-------------------------|
E|---------------------------------------------------0---0---0-----0---0---0-|
  
  Em                                  C                        Am
e|------------3--------------------------------------------------------------|
B|--------------------0-------------------------1-------------------------0--|
G|----------------------0-------------------------0-------------------------0|
D|2---2---2---2---2---------2---2---2---2---2---------2---2-------2---2------|
A|------------------------------------3---3---3-----3---3---3/2p0---0---0----|
E|--0---0---0---0---0-----0---0---0------------------------------------------|

  Am          Em
e|------------------------------------------------3--------------------------|
B|------------0---------0---------------------------------0------------------|
G|------------------------0---------------------------------0----------------|
D|--2---2---2---2---2---------2---2---2---2---2---2---2---------2---2---2----|
A|0---0---0------------------------------------------------------------------|
E|------------0---0---0-----0---0---0---0---0---0---0---0-----0---0---0---0--|
                                                            (finished at 1:41)

  Bridge:
  C                            Am                        Em
e|---------------------------------------------------------------------------|
B|----------0---------------------------0---------------------------0--------|
G|--------------0---------------------------0---------------------------0----|
D|--2---2-----------2---2---2---2---2-----------2---2---2---2---2------------|
A|3---3---3---3---3---3---3---0---0---0---0---0---0---0----------------------|
E|--------------------------------------------------------0---0---0---0---0--|

  Em                      C  Am   Em      C         Am    Em
e|---------------------------------------------------------------------------|
B|--------0-------------------------------------1-------1-------0------(0)---|
G|------------0-------------------------------0-------2-------0-------0------|
D|2---2-----------2---2---------------------2-------2-------2-------2---2----|
A|------------------------3-3-0-0---------3-------0--------------------------|
E|--0---0---0---0---0---0--------0-0-0-0------------------0-------0----------|
                 ("Don't look back..")          

  C       Am      Em              C       Am     Em
e|---------------------------------------------------------------------------|
B|------1-------1-------0---------------1-------1-------0--------------------|
G|----0-0-----2-2-----0-0-----0-------0-0-----2-2-----0-0-----0--------------|
D|--2---2---2---2---2---2---2---2---2---2---2---2---2---2---2---2------------|
A|3-----3-0-----0-------2-------2-3-----3-0-----0-------2-------2------------|
E|----------------0-----0-0-----0-----------------0-----0-0-----0------------|
       (strum up lightly)                                       (ends at 2:43)
 
  guitar 1: (2:43)
  C               Am              Em
e|0---0---0---0---0---0---0---0---0---0---0---0---0---0---0---0--------------|
B|-1---1---1---1---1---1---1---1---0---0---0---0---0---0---0---0-------------|
G|--0---0---0---0---2---2---2---2---0---0---0---0---0---0---0---0------------|
D|---2---2---2---2---2---2---2---2---2---2---2---2---2---2---2---2-----------|
A|---------------------------------------------------------------------------|
E|---------------------------------------------------------------------------|
                                                            (repeat till 3:33)

  guitar 2: (2:43)
  C       Am      Em              C       Am      Em
e|0-0-0-0-0-0-0-0-0-0-0-0-0-0-0-0-0-0-0-0-0-0-0-0-0-0-0-0-0-0-0-0------------|
B|-1-1-1-1-1-1-0-0-0-0-0-0-0-0-0-0-1-1-1-1-1-1-0-0-0-0-0-0-0-0-0-------------|
G|---------------------------------------------------------------------------|
D|------------------------------------------------2-2-2-2-2-2-2-2------------|
A|------------------------------------------------2-2-2-2-2-2-2-2------------|
E|------------------------------------------------0-0-0-0-0-0-0-0------------|
                                                   (Don't make it too hard for 
                                               yourself - use your thumb - but
                                         slowly start piecing harder for this)

  Switch this for that part up there for like the 2nd repeat:
                                            add this at the end of the other 
                                            till finished
                                                      strum here
e|0-0-0-0-0-0-0-0-0-0-0-0-0-0-0-0-0-0------|1-1-3-3--------------------------|
B|-1-1-1-1-1-1-0-0-0-0-0-0-3-3-3-3-3---x2--|-3-3-3-3-------------------------|
G|-----------------------------------------|---------------------------------|
D|-----------------------------------------|---------------------------------|
A|-----------------------------------------|---------------------------------|
E|-----------------------------------------|---------------------------------|
        
  C                      Am                                      
  Don't don't don't look back

       Em
  Just keep your head up

  C                       Am
  Don't don't don't look back

        Em               (slow ending strum here)
  Just keep your head up



- - - - - - - - - - - - - - - - - - - - - - - - - - -
Lyrics:
You oughta know
That the world isn't fair
This light doesn't owe you anything

It's in your hands
To make your own luck
Live your own life
You're awake

Well, count on me
When the world isn't kind
And it leaves you behind
All alone

Just remember dear:
You are a strong one
You will not let it
Knock you down

Don't look back
Just keep your head up
Don't look back
Just keep your head up

Don't don't don't look back
Just keep your head up
Don't don't don't look back
Just keep your head up

************************************

| /   slide up
| \   slide down
| h   hammer-on
| p   pull-off

************************************
Добавлено: 27.12.2015
Другие материалы по этой песне:
  • Аккорды и текст

Страница создана 27.12.2015
http://primanota.ru/amarante/dont-look-back-chords.htm
Привет, Гость.
Предлагаем пройти революционный курс по гитаре.
Подарок от PrimaNota.Ru, забирай!