PrimaNota.ru - самый крупный в мире бесплатный архив песенных текстов, аккордов, табулатур и нот


Amano Tsukiko - Tsuki - таба, бас-таба, видео

Регистрация Запомнить меня
Войти через:  Facebook Google Twitter Vk Yandex Mail.ru

Amano Tsukiko - Tsuki - таба, бас-таба, видео

Печатать
Просмотров: 126
Tsuki
Tsukiko Amano
Tenryu

Acoustic guitar 1(Capo 3)
Acoustic guitar 2(Capo 3) [Plays Single Notes in Chorus}
Drop-D

Chords:    Bm7    G5   A      D5    F5    A5      
e|----------------3----0----------------------|
B|----------3-----3----2------3---------------|
G|----------2-----0----2------2-----5-----9---|
D|----------0-----0----2------0-----3-----7---|
A|----------2-----x----0------0-----3-----7---|
D|----------------5-----------0-----3-----7---|

Intro and Verses
e|-----0-----0-----|-----0-----0-----|
B|---3-----3-----3-|---3-----3---3---|
G|-----------------|-----------------|
D|-5-----5-----5---|-4-----4---------|
A|-----------------|-----------------|
D|-----------------|-----------------|

Pre-Chorus
e|-3-------0-------|-----------------|-3-------0-------|-2-----3p2-------|
B|-3-------2-------|-3---------------|-3-------2-------|-3---------3-----|
G|-0-------2-------|-2---------------|-0-------2-------|-2-----------2---|
D|-0-------2-------|-0---------------|-0-------2-------|-0-------------0-|
A|-x-------0-------|-0---------------|-x-------0-------|-0---------------|
D|-5---------------|-0---------------|-5---------------|-0---------------|

e|-3-------0-------|-------0-2p0-----|-1---------------|-0---------------|
B|-3-------2-------|-3-----------3---|-1---------------|-2---------------|
G|-0-------2-------|-2-------------2-|-2---------------|-2---------------|
D|-0-------2-------|-0---------------|-3---------------|-2---------------|
A|-x-------0-------|-0---------------|-3---------------|-0---------------|
D|-5---------------|-0---------------|-----------------|-----------------|

e|-0---------------|
B|-2---------------|
G|-2---------------|
D|-2---------------|
A|-0---------------|
D|-----------------|

Chorus guitar 2 (play this all the way through)
e|-0---------------|
B|---------3-------|
G|-----2-------2---|
D|-----------------|
A|-----------------|
D|-----------------|
 with Chorus effect

Verse 1
Kiniro no ame ga ochiru
Tameiki wa shiroku ukabu

Pre-Chorus
Hanashikondeta akarui mirai wa
Gaitou no naka
Utsuroide yuku

Chorus
Bm7
Loser
G5                A       D5          Bm7
Yuganda kokoro no hida ni fukaku sasatta tsuki
G5         A        D5
Watashi wo semereba ii
Bm7
Glaring
G5                 A        D5      Bm7
Sabitsuki hagareta yume ga takaku tsumotta yoru
G5          A      D5
Watashi wo teraseba ii

Verse 2
Miageteru ago no rain
Kakeochita tsuki no kaavu

Pre Chorus 2
Konkuriito no biru no tanima kara
Kimi to kurashita machi wo omotta

Chorus 2
Bm7
Loser
G5                A        D5        Bm7
Yukai na otona no mure ni kasanariatta mama
G5        A         D5
Yogorete yuku no darou
Bm7
Glaring
G5                  A     D5       Bm7
Kajikamu yubi wo kuwaete tsume wo kamitsuzuketa
G5            A       D5
Kimi nara shikaru no kana

Bridge
F5         A5   
Lalalala...
F5                            G5   F5
Te wo nobaseba todoku hazu datta noni

Chorus 3
Bm7
Loser
G5                 A       D5          Bm7
Yuganda kokoro no hida ni fukaku sasatta tsuki
G5           A      D5
Watashi wo semereba ii
Bm7
Glaring
G5                 A     D5               Bm7
Kajikamu yubi wo kuwaete tsume wo kamitsuzuketa
G5          A     D5
Watashi wo oboete ite
Добавлено: 14.08.2015
Другие материалы по этой песне:
  • Аккорды и текст

Страница создана 14.08.2015
http://primanota.ru/amano-tsukiko/tsuki-chords.htm
Привет, Гость.
Предлагаем пройти революционный курс по гитаре.
Подарок от PrimaNota.Ru, забирай!