PrimaNota.ru - самый крупный в мире бесплатный архив песенных текстов, аккордов, табулатур и нот


Amalgamated Sons Of Rest - Maa Bonny Lad - аккорды и текст, видео

Регистрация Запомнить меня
Войти через:  Facebook Google Twitter Vk Yandex Mail.ru

Amalgamated Sons Of Rest - Maa Bonny Lad - аккорды и текст, видео

Печатать
Просмотров: 138
Maa Bonny Lad
Amalgamated Sons Of Rest
-------------------------------------------------------------------------------
                  MAA BONNY LAD - Amalgamated Sons of Rest
-------------------------------------------------------------------------------

Tabbed by: bengtaaron


Tuning: Standard


The key to this song is using alternate chord voicings to match the melody notes. I'll indicate the 
alternate voicings in the tab with an * next to the chord.

A (577655) 
A* (x 12 14 14 14 x)
D (x5777x) 
D* (10 12 12 11 10 10)
E (x7999x)



The intro/outro has two guitars, but I've tried to amalgamate them as comfortably as possible for one.
Optional grace notes are in parenthesis.


    A           D     A          
e|--5---5-----------------------5-------5----5---9---10--9--9/7--|
B|----9---5---5-7---7-5---------------9---5----------------------|
G|----------6-----7----------------------------------------------|
D|----------------------(7)-(7)---(7)----------------0---7-------|
A|--------------5------------------------------------------------|
E|--5-----5-----------5---------5---------5-(5)-(5)--------------|

    A           D     A                                D           A
e|--5---5-----------------------------5--9--12--10--9--7-----------5---------------5---5---5--|
B|----9---5---5-7---7-5---------5--5------------------------(7)---------(5)----5-------5---5--|
G|----------6-----7--------------------------------------------------------------------6---6--|
D|----------------------(7)-(7)------------------------9-(9)---(9)---(7)---(7)----------------|
A|--------------5------------------------0--0---0---0-----------------------------------------|
E|--5-----5-----------5------------5--5----------------------------5-----------5---5---5---5--|


A                          D         A
Oh, have you seen ought of my bonny lad
A                     D*   A*                 
And are you sure he's well-o
A                          D            A
He's been away long with a stick in his hand
A                     E    A
He's goin' to row the keel-o


Yes, I've seen your bonny lad
'Twas on the sea I spied him
His grave, it's green, but not with grass
And you'll never lie beside him
Добавлено: 09.07.2015
Другие материалы по этой песне:
  • Аккорды и текст

Страница создана 09.07.2015
http://primanota.ru/amalgamated-sons-of-rest/maa-bonny-lad-chords.htm
Привет, Гость.
Предлагаем пройти революционный курс по гитаре.
Подарок от PrimaNota.Ru, забирай!