PrimaNota.ru - самый крупный в мире бесплатный архив песенных текстов, аккордов, табулатур и нот


Aly & Aj - We Three Kings - текст песни, таба, видео

Регистрация Запомнить меня
Войти через:  Facebook Google Twitter Vk Yandex Mail.ru

Aly & Aj - We Three Kings - текст песни, таба, видео

Печатать
Просмотров: 191
Aly and Aj
We Three Kings
Acoustic Hearts Of Winter
2006 Hollywood Records
Submitted by: paramore_fans@yahoo.com

Tuning: EADGBe and capo on 1st fret on both Aly and Aj to make the C sound as C#

Chords used:
Am -  x02210
Em -  022000
C -   x32010
G/B - x20033
F -   133211
Dm -  xx0231
E -   022100
G -   320033

Intro: Am--Em--Am (x2)

Aly:
e|-0------------7--8-7-----0--------------------|
B|----3--1--10---------10-----3--1-----0--1-0---|
G|----------------------------------2---------2-|
D|----------------------------------------------|
A|----------------------------------------------|
E|----------------------------------------------|

Aj:
e|-0---0--0-|
B|-1---0--1-|
G|-2---0--2-|
D|-2---2--2-| (x2)
A|-0---2--0-|
E|-----0----|


Verse 1:
Am                Em     Am                   Em         Am
We three kings of Orient are Bearing gifts we traverse afar
C         G/B       Am       F        Dm        E       Am
Field and fountain, moor and mountain Following yonder star
Am             Em          Am                     Em         Am
Born a baby on Bethlehem's plain Gold we bring to crown Him again
C       G/B   Am      F     Dm      E      Am  G
King forever, ceasing never Over us all to rein


Aly: Before Chorus
e|----------------|
B|---0-1--0--1--3-|
G|-2--------------|
D|----------------|
A|----------------|
E|----------------|


Chorus:
C               F       C                     F      C
Star of wonder, star of night Star with royal beauty bright
Am       G         F       G       C               F       C
Westward leading, still proceeding Guide us to Thy perfect light


Verse 2:
Am              Em         Am               Em    Am
Frankincense to offer have I Incense owns a Deity nigh
C          G/B       Am      F       Dm           E      Am  G
Pray'r and praising, all men raising Worship Him, God on high


(Repeat Chorus)


Bridge: yeahhh

Aly: Solo
e|----------0-------------------------------------------------------------|
B|---0-1--3----3--1--0-----0-1--0------------------------------0--0-1-3-1-|
G|-2--------------------2----------2--0-----0-2-------0-----0-------------|
D|---------------------------------------3----------2----0----------------|
A|-----------------------------------------------3------------------------|
E|------------------------------------------------------------------------|
then
e|----------0----------------------------------------------------------3----------3-|
B|---0-1--3----3--1--0-----0-1--0----------------3-----------------3---3----0-1-----|
G|-2--------------------2----------2--0------2----------0---0----0---0-0--2-----0---|
D|---------------------------------------0h3---0------2---2----0--------------------|
A|--------------------------------------------------3-------------------------------|
E|----------------------------------------------------------------------------------|

Aj: C-G/B-Am-G-F-C-G then C-G/B-Am-G-Dm-C-G


Dm C      G            (break)
   Heaven sings hallelujah


Verse 3:
Am                 Em        Am                       Em        Am
Myrrh is mine, its bitter perfume Breathes of life of gathering gloom
C          G/B      Am        F     Dm            E          Am  G
Sorrowing, sighing, bleeding, dying Sealed in the stone-cold tomb

(Repeat Chorus)

Outro:

Aly:
e|0--------------------|
B|---3--1-----0--1-0---|
G|---------2---------2-|
D|---------------------|
A|---------------------|
E|---------------------|

Aj: Am--Em-Am(let ring)
Добавлено: 13.05.2012
Другие материалы по этой песне:
  • Аккорды и текст

Страница создана 18.04.2012
http://primanota.ru/aly-and-aj/we-three-kings-chords.htm
Привет, Гость.
Предлагаем пройти революционный курс по гитаре.
Подарок от PrimaNota.Ru, забирай!