PrimaNota.ru - самый крупный в мире бесплатный архив песенных текстов, аккордов, табулатур и нот


Aly & Aj - Not This Year - текст песни, таба, видео

Регистрация Запомнить меня
Войти через:  Facebook Google Twitter Vk Yandex Mail.ru

Aly & Aj - Not This Year - текст песни, таба, видео

Печатать
Просмотров: 120
-------------------------------------------------------------------------------
                          Not This Year - Aly & AJ
-------------------------------------------------------------------------------
Tabbed by: pojoto
Email: pojoto@yahoo.com

Tuning:Standard eBGDAE

My first tab but I hope you like it. About everything's power chords. The only thing I
get is the bridge and the exact picking for the intro but other than that, everything
is very accurate. I just put the chords for the intro so you can figure it out after 
Please play to the song and enjoy. This is great music right here.

Intro
e|---------------------------------------------------------------------------|
B|---------------------------------------------------------------------------|
G|-8888-5555--------------8888-5555------------------------------------------|
A|-8888-5555-55555555-----8888-5555-55555555---------------------------------|
E|-6666-3333-55555555-----6666-3333-55555555---------------------------------|
G|-----------33333333---------------33333333---------------------------------|

Verses 1 (play this twice) I suggest palm muting to get that sound
e|---------------------------------------------------------------------------|
B|---------------------------------------------------------------------------|
G|-8888888888888888-5555555555555555-----------------------------------------|
D|-8888888888888888-5555555555555555-5555555555555555-8888888888888888-------|
A|-6666666666666666-3333333333333333-5555555555555555-8888888888888888-------|
E|-----------------------------------3333333333333333-6666666666666666-------|

Chorus
e|-----------------------------------------------------------------------------|
B|-----------------------------------------------------------------------------|
G|-88888888-55555555-------------------------8888-----------5555-555555555555--|
D|-88888888-55555555-55555555-8888-3333-5555-8888-8888-3333-5555-555555555555--|
A|-66666666-33333333-55555555-8888-3333-5555-6666-8888-3333-3333-333333333333--|
E|-------------------33333333-6666-1111-3333------6666-1111--------------------|

Verses 2 (same as verse 1)

Chorus

Bridge (I couldn't tab it except the last part)
"No more whispering, are you listening, I am pleading, (I am pleading)."
e|---------------------------------------------------------------------------|
B|---------------------------------------------------------------------------|
G|------8xxxxx---------------------------------------------------------------|
D|-8xx8-8xxxxx-88888888------------------------------------------------------|
A|-8xx8-6xxxxx-88888888------------------------------------------------------|
E|-6xx6--------66666666------------------------------------------------------|

Chorus (with extended part at end so keep playing x355xx)

Solo (These strokes may not be right but the frets are so you just have to listen and 
it out)
e|---------------------------------------------------------------------------|
B|---------------------------------------------------------------------------|
G|-17-15-17-15-17-19-17-15-12-15---------------------------------------------|
D|-------------------------------15-15-13-13-15-12-12-12----13-12------------|
A|-------------------------------------------------------13-------15-13------|
E|---------------------------------------------------------------------------|

e|---------------------------------------------------------------------------|
B|---------------------------------------------------------------------------|
G|-17-15-17-15-17-19-17-15---------------------------------------------------|
D|-------------------------15-13-12------------------------------------------|
A|---------------------------------------------------------------------------|
E|---------------------------------------------------------------------------|

Chorus (with extended part so keep playing x355xx then end on 688xxx)

| /  slide up
| \  slide down
| h  hammer-on
| p  pull-off
| ~  vibrato
| +  harmonic
| x  Mute note
Добавлено: 06.12.2013
Другие материалы по этой песне:
  • Аккорды и текст

Страница создана 06.05.2012
http://primanota.ru/aly-and-aj/not-this-year-chords.htm
Привет, Гость.
Предлагаем пройти революционный курс по гитаре.
Подарок от PrimaNota.Ru, забирай!