PrimaNota.ru - самый крупный в мире бесплатный архив песенных текстов, аккордов, табулатур и нот


Aly & Aj - Let It Snow - аккорды и текст, видео

Регистрация Запомнить меня
Войти через:  Facebook Google Twitter Vk Yandex Mail.ru

Aly & Aj - Let It Snow - аккорды и текст, видео

Печатать
Просмотров: 177
Let It Snow
Aly & Aj
Aly and Aj
Let It Snow
Acoustic Hearts Of Winter
2006 Hollywood Records
Submitted by: paramore_fans@yahoo.com
Your hands are required to switch very fast to play this song
This is not 100%, this song is very difficult to predict unless you are exposed to jazz
samba music. This is the 1st song that the siblings made a Christmas jazz.

Em=Em+M7

Tuning: Standard EADGBe

Intro: D-DM7--Bm---Em--A-A7 (x2)

Verse 1:
       Em         A7      DM7      Bm-D
Oh the weather outside is frightful
        F#m     C#/F  Em     B7
But the fire is so delightful
    Em             Em      ??/D ??/C#
And since we've no place to go
       Em           A7           DM7  Bm-D
Let It Snow! Let It Snow! Let It Snow!
   Em           A7        DM7    Bm-D
It doesn't show signs of stopping
         F#m         C#/F     Em     B7
And I've bought some corn for popping
    Em         Em             ??/D ?//C#
The lights are turned way down low
       Em           A7           DM7
Let It Snow! Let It Snow! Let It Snow!


Chorus:
        A       Bm       C#m  C
When we finally kiss goodnight
         Bm         E          A
How I'll hate going out in the storm!
       A             Bm      C#m  F#
But if you'll really hold me tight
B           E            A
All the way home I'll be warm


Verse 2:
    Em      A7     DM7  Bm-D
The fire is slowly dying
        F#m      C#/F       Em   B7
And the deer was still good-bying
       Em          Em     ??/D ??/C#
But as long as you love me so
       Em           A7           DM7
Let It Snow! Let It Snow! Let It Snow!

Solo: Aly's great jazzy plucking while doing Verse chords
e|---------------2-3-5--3-----------------------------------3---5---3-4-5-|
B|-----------2-3----------7\5-2--3-0------3----0----3-2---3---3---4-------|
G|-----0-2-4-------------------------2--2----2----2-----2-----------------|
D|-0-4--------------------------------------------------------------------|
A|------------------------------------------------------------------------|
E|------------------------------------------------------------------------|
then
e|---------5----5--------------------5-4-3---10----------------|
B|-7-8-7-5----5---8-7\6\5--3-4-5---5-------3----10-9-8---------|
G|-------------------------------4---------------------9/10/11-|
D|-------------------------------------------------------------|
A|-------------------------------------------------------------|
E|-------------------------------------------------------------|

(Repeat Chorus)

Outro:
       Em         A7      DM7      Bm-D
Oh the weather outside is frightful
        F#m     C#/F  Em     B7
But the fire is so delightful
    Em             Em      ??/D ??/C#
And since we've no place to go
       Em           A7           DM7  Bm-D
Let It Snow! Let It Snow! Let It Snow!
       Em           A7           DM7
Let It Snow! Let It Snow! Let It Snow!
       Em     A7     DM7
Let it snow, snow, snow!

Aly: last part
e|-5--6--7--8--9-10-|
B|------------------|
G|------------------|
D|------------------|
A|------------------|
E|------------------|
Добавлено: 23.07.2013
Другие материалы по этой песне:
  • Аккорды и текст

Страница создана 23.07.2013
http://primanota.ru/aly-and-aj/let-it-snow-chords.htm
Привет, Гость.
Предлагаем пройти революционный курс по гитаре.
Подарок от PrimaNota.Ru, забирай!