PrimaNota.ru - самый крупный в мире бесплатный архив песенных текстов, аккордов, табулатур и нот


Aly & Aj - Careful with Words - аккорды и текст, таба, видео

Регистрация Запомнить меня
Войти через:  Facebook Google Twitter Vk Yandex Mail.ru

Aly & Aj - Careful with Words - аккорды и текст, таба, видео

Печатать
Просмотров: 109
Careful with Words
Aly & Aj
Aly And Aj
Careful With Words
Insomniatic
2007 Hollywood Records
Submitted by: paramore_fans@yahoo.com

Key: B

Tuning: Standard EADGBe

Chords used:
B -   x24442
F# -  244322
G#m - 466444
E -   022100
C#m - x46654


Verse 1:
B                         E
Please stop calling on my cell
                      A
I've got enough voice mails
                  E
Don't you get the picture
I don't return your
B                 E
Emails IM or your text
             A              E
Messages are getting boring fast


Aly: while Aj do the chords of verses
   B    E    A   E
e|-11-|-11-|-9-|-12-|
B|--0-|--0-|-0-|--0-|
G|-11-|--9-|-9-|-13-|
D|----|----|---|----|
A|----|----|---|----|
E|----|----|---|----|


Refrain:
   C#m                     E(hold)
I tried to careful with my words


Chorus 1:
       Abm            E
You're all over me suffocating
B                     F#
I need to breathe doorbell's ringing
Abm                E
CD you sent won't stop singing
B                    F#
How's that for being careful with words


Post Chorus:
B E       A        E
   Careful, careful


Piano:
e|-14-------------11-12-|
B|----14--12--14--------|
G|----------------------|
D|----------------------|
A|----------------------|
E|----------------------|


Verse 2:
B                     E
No more flowers at my door
                  A
I've started to ignore
                   E
The smell of moldy petals
I must confess your
B                        E
desperate to get my attention
                A                 E
Shoppers we are closing please go home


(Repeat Refrain and Chorus 1)


Chorus 2:
Abm         E
First I was flattered by
B            F#
All the intention I
Abm       E                    B F#
wanted to see where this would go
Abm          E
Then you got weird on me
  B          F#
Obsessive at 3rd degree
Abm        E          B    F#
Till I was ready to explode


Aly: lead while Aj doing Chorus 2
e|-----------------------------|
B|-----------------------------|
G|-6h8-8-8-8-8-8-8-6-6---------|
D|---------------------9-9-9-9-| (x8)
A|-----------------------------|
E|-----------------------------|


Bridge:
Abm(Hold)       E(hold)           B(hold)
  None of these words have been rehearsed
              F#(hold)      Abm(hold)
I don't think they can be reversed
E(hold)              B    F#
Sadly, it's only one sided (And you are)
Abm      E
  Only a matter of time
B                      F#               Abm
  Before I have to confess what's on my mind
  E                       B     F#
I told you it wouldn't be pretty (didn't I)


Solo:

Aj: Abm-E-B-F# (x2)

Aly:
e|----------------------------------------------------|
B|-7-7-7-7-9-5--4-4-4-4-2-2--4-4-4-4-7-7----------2-2-|
G|----------------------------------------4-4-4-4-----|
D|----------------------------------------------------|
A|----------------------------------------------------|
E|----------------------------------------------------|


(Repeat Chorus 1)


Outro:

Aj: Abm-E-B-F# (x2)

Aly:
e|-----------------------|
B|---0-4-2--0--0-0-0-4-2-|
G|-1---------------------|
D|-----------------------| (x2)
A|-----------------------|
E|-----------------------|


(Repeat Chorus 1)
Добавлено: 08.09.2013
Другие материалы по этой песне:
  • Аккорды и текст

Страница создана 08.09.2013
http://primanota.ru/aly-and-aj/careful-with-words-chords.htm
Привет, Гость.
Предлагаем пройти революционный курс по гитаре.
Подарок от PrimaNota.Ru, забирай!