PrimaNota.ru - самый крупный в мире бесплатный архив песенных текстов, аккордов, табулатур и нот


Alvaro Carrillo - Sabor A Mi - таба, видео

Регистрация Запомнить меня
Войти через:  Facebook Google Twitter Vk Yandex Mail.ru

Alvaro Carrillo - Sabor A Mi - таба, видео

Печатать
Просмотров: 137
Уроки эстрадного вокала в Санкт-Петербурге
Авторы музыки: Álvaro Carrillo
Авторы текста: Álvaro Carrillo
sabor a mi

e----------------------|------------------|
B-------------------1--|-3--1--0---1------|
G--------0--2--4-------|-0---------2--2---|
D-2--4-----------------|-2---------1------|
A----------------------|-0---------3------|
E----------------------|------------------|

e--3----------------------------------------|
B--0------------------------6---------------|
G--0------------------------7----7--5-------|
D--0---------0-2-4-5-6------6---------------|
A--2--2-3-------------------7---------------|
E--3----------------------------------------|
                                *singing starts
e-------------5----------|-----------------------------|
B-1-----------4----------|------0--1--3--1-------------|
G-0---2---0---5----------|--0------------------4--2----|
D-2-----------4-------4--|--0--------------------------|
A-0---------------5------|--2--------------------------|
E------------------------|--3--------------------------|


e--------------------|--------------------------|
B---1----------------|--0---------1--0----------|
G---0------4-----4---|--0---2-4---0-----2--0----|
D---1---2-----2------|--1---------1-------------|
A---0----------------|--3---------0-------------|
E--------------------|--------------------------|

e-----------------------|----------------------------|
B-----------------------|---2----------3-------------|
D--3-----------2--------|---3----------2--0--4--2----|
G--4-----0-----4--------|---5--4-5-----2-------------|
A--5-----2--------------|---0----------2-------------|
E--3--------------------|----------------------------|


e--------------------------|-----------------|------------|
B--1-----------------------|-----------------|------------|
G--0---------0--2----------|--5------5-------|--0---------|
D--2--2--4---------4-2-0---|--4--0--4--0-----|--2---------|
A--0-----------------------|--0--------------|--5---------|
E--------------------------|-----------------|--3---------|

e--3-----------------------|--------------------|--------------------------|
B--3--0--1--3--1-----------|---1----------------|--0---------1--0----------|
G--4----------------4--2---|---0------4-----4---|--0---2-4---0-----2--0----|
D--5-----------------------|---1---2-----2------|--1---------1-------------|
A--5-----------------------|---0----------------|--3---------0-------------|
E--3-----------------------|--------------------|--------------------------|

e-----------------------|-------------------------------|
B-----------------------|---2----------3----------------|
G--3-----------2--------|---3----------2--0--4--2-------|
D--4-----0-----4--------|---5--4-5-----2----------------|
A--5-----2--------------|---0----------2----------------|
E--3--------------------|-------------------------------|

e--------------------------|-----------------|-------------|
B--1-----------------------|-----------------|-------------|
G--0---------0--2----------|--5------5-------|--0----------|
D--2--2--4---------4-2-0---|--4--0--4--0-----|--2----------|
A--0-----------------------|--0--------------|--5----------|
E--------------------------|-----------------|--3----------|

play this following part twice
e-----------------------|-------------|----------------|--------------|
B----------------2------|-------------|-----0-------0--|--------------|
G--0---0--0------2--0---|-2------2--0-|--2-0-0--2--0-0-|---2----------|
D--2---2--2------2------|----3--------|--2------1------|--------2--4--|
A--4---4--4------1------|-------------|--3------2------|---3----------|
E--3---3--3-------------|-------------|---------3------|--------------|

e------------------|---------------------|---------------------------|
B------------------|--------0------------|--------0------------0-1-0-|
G--0---2------2--4-|----0------------0---|----2-------2---2----------|
D--0---------------|----0---------4------|----0-----------2----------|
A--2---------------|----2----------------|----3-----------3----------|
E--0---------------|----0----------------|----1----------------------|


e--------------------------|--------------------|------------------------|
B------0--1--3--1----------|---1----------------|--0--------1--0---------|
G-2------------------4--2--|---0------4-----4---|--0---2-4--0-----2--0---|
D-0------------------------|---1---2-----2------|--1--------1------------|
A-3------------------------|---0----------------|--3--------0------------|
E-1------------------------|--------------------|------------------------|

e-----------------------|----------------------------|
B-----------------------|---2----------3-------------|
D--3-----------2--------|---3----------2--0--4--2----|
G--4-----0-----4--------|---5--4-5-----2-------------|
A--5-----2--------------|---0----------2-------------|
E--3--------------------|----------------------------|

e-------------------------|-----------------|------------|
B-1-----------------------|-----------------|------------|
G-0---------0--2----------|--5------5-------|--0---------|
D-2--2--4---------4-2-0---|--4--0---4--0----|--2---------|
A-0-----------------------|--0--------------|--5---------|
E-------------------------|-----------------|--3---------|
Добавлено: 23.02.2012
Другие материалы по этой песне:
  • Аккорды и текст

Страница создана 23.02.2012
http://primanota.ru/alvaro-carrillo/sabor-a-mi-chords.htm
Привет, Гость.
Предлагаем пройти революционный курс по гитаре.
Подарок от PrimaNota.Ru, забирай!