PrimaNota.ru - самый крупный в мире бесплатный архив песенных текстов, аккордов, табулатур и нот


Alvarez Kings - Sleepwalking - таба, видео

Регистрация Запомнить меня
Войти через:  Facebook Google Twitter Vk Yandex Mail.ru

Alvarez Kings - Sleepwalking - таба, видео

Печатать
Просмотров: 62
Hey there! I'm Simone. This is my first tab, so i'm sorry for mistakes!!
If you want to know the strumming pattern and timing you should listen to the song & you'll figure it out ;)
i figured it by listening to it and i'm almost a 100% sure this is the correct way to play it.

Tuning: Standard 
Capo: 5 or 4 however you prefer (5 is better if you want to play along with the song) 
This is Sleepwalking by Alvarez kings 

_________________________________________________________________________________________


e----------------------------------------------------------------| 
b----0----------------1--------------1----------------0----------|
g------0----------------0--------------0----------------0--------|  5x
D----------------------------------------------------------------|
A-----------------0-------0-------3------3---------2------2------|
E--3------3------------------------------------------------------|


e----------------------------------------------------------------| 
b----0----------------3--------------3----------------3----------|
g------0----------------0--------------0----------------0--------| 3X
D---------------------------------------------------------4------|
A-----------------0-------0--------3-----3--------2--------------|
E--3------3------------------------------------------------------|


e----------------------------------------------------------------| 
b----0----------------1--------------1----------------0----------|
g------0----------------0--------------0----------------0--------|  2x
D----------------------------------------------------------------|
A-----------------0-------0-------3------3---------2------2------|
E--3------3------------------------------------------------------|


e----------------------------------------------------------------|
b-----1--------------3----------------8--------------7-----------|
g-------0--------------0----------------0--------------0---------| 4x
D----------------------------------------------------------------|
A--0-----0--------2------2---------7------7-------5-----5--------|
E----------------------------------------------------------------|


e----------------------------------------------------------------| 
b----0----------------1--------------1----------------0----------|
g------0----------------0--------------0----------------0--------|  3x
D----------------------------------------------------------------|
A-----------------0-------0-------3------3---------2------2------|
E--3------3------------------------------------------------------|


e----------------------------------------------------------------| 
b----0----------------3--------------3----------------3----------|
g------0----------------0--------------0----------------0--------| 3X
D---------------------------------------------------------4------|
A-----------------0-------0--------3-----3--------2--------------|
E--3------3------------------------------------------------------|


e----------------------------------------------------------------| 
b----0----------------1--------------1----------------0----------|
g------0----------------0--------------0----------------0--------|  2x
D----------------------------------------------------------------|
A-----------------0-------0-------3------3---------2------2------|
E--3------3------------------------------------------------------|


e----------------------------------------------------------------|
b-----1--------------3----------------8--------------7-----------|
g-------0--------------0----------------0--------------0---------| 8x
D----------------------------------------------------------------|
A--0-----0--------2------2---------7------7-------5-----5--------|
E----------------------------------------------------------------|

*strum this part* 
e----------------------------------------------------------------|
b---5-----3-----8-----7-----10----12-----------------------------|
g---0-----0-----0-----0-----0-----0------------------------------|
D---0-----0-----0-----0-----0-----0------------------------------| x10
A---3-----2-----7-----5-----9-----11-----------------------------|
E---0-----0-----0-----0-----0-----0------------------------------|

Добавлено: 31.12.2015
Другие материалы по этой песне:
  • Аккорды и текст

Страница создана 31.12.2015
http://primanota.ru/alvarez-kings/sleepwalking-chords.htm
Привет, Гость.
Предлагаем пройти революционный курс по гитаре.
Подарок от PrimaNota.Ru, забирай!