PrimaNota.ru - самый крупный в мире бесплатный архив песенных текстов, аккордов, табулатур и нот


Alterkicks - Good Luck - аккорды и текст, таба, видео

Регистрация Запомнить меня
Войти через:  Facebook Google Twitter Vk Yandex Mail.ru

Alterkicks - Good Luck - аккорды и текст, таба, видео

Печатать
Просмотров: 183
Уроки эстрадного вокала в Санкт-Петербурге
Good Luck
Alterkicks
Alterkicks are an amazing band, and I really hope they get big, because they deserve it 
much.


Intro

(Let all notes ring)

e------------8------10-------10-------12-------13-|
B----8-----8------8---8----8---8----8---8----8----|
G-------------------------------------------------|
D-10-----10----10-------10-------10-------10------|
A-------------------------------------------------|
E-------------------------------------------------|


Verse.

Play chords as barre chords.

C
I would only stop when I've had enough,
F
She would only laugh when she's feeling good,
Am
Crouching on a step with a sorry look,
G
Thinking that I don't really love her enough,
C
Sometimes I take a walk just to shake it off,
F
Holding out my hands praying, I'm too soft,
Am
Living in a bubble will it ever pop,
G
Clinging by my fingers to the highest rock,
G
Clinging by my fingers to the highest rock.


Chorus

Chords are the same, but on the G, instead you play

Riff 1 (the first time):

e-12-12-12-10-10-10-10-10-10-----------|
B-13-13-13-12-12-12-12-12-12-----------|
G-------------------12-12-12-12-12-12--|
D----------------------------12-12-12--|
A--------------------------------------|
E--------------------------------------|

Riff 2 (second time):

e-12-12-12-10-10-10-10-10-10-------------------------------------|
B-13-13-13-12-12-12-12-12-12-------------------------------------|
G-------------------12-12-12-12-12-12-12^12^12^12^12^12^12^12^12-|
D----------------------------12-12-12-12^12^12^12^12^12^12^12^12-|
A----------------------------------------------------------------|
E----------------------------------------------------------------|

C        F
Tonight, wish you good luck tonight,
         Riff 1
Wish you good luck tonight,

Goodbye,
C      F
And I, wish you good luck tonight,
         Riff 2
Wish you good luck tonight,

Goodbye.


Verse.
C
Beaten all day 'cos I'm outta' shape,
F
Tried to make the grade but I made it late,
Am
Things are always straight at the end of the day,
G
When you're scrambling in the dark, there's another way,
C
Im scribbling always by firelight,
F
Caught you in the car and you made it right,
Am
She was holding too tight just to feel alive,
G
She was holding too tight just to feel alive,
G
She was holding too tight just to feel alive


Chorus

C        F
Tonight, wish you good luck tonight,
         Riff 1
Wish you good luck tonight,

Goodbye,
C      F
And I, wish you good luck tonight,
         Riff 2
Wish you good luck tonight,

Goodbye.


Bridge part 1 Play G as (x101212XX) Play F as (x81010xx)

   G      F        C
The more I tell the truth, (ooooooh)
    G       F       C
The more it changes you,

Part 2. Play barre chords now

    C
If I run when you walk, If I smile when you talk,
F
I can make all of this seem like it's not too forced,
Am
If I try and I try and I make you recall,
G
Then the hole in your heart won't be vacant no more,
C
And you're always making art or taking
F
Pictures for the stars in waiting,
G
I could help you try my patience,
G
I could help you try my patience.

G...

    C
If I run when you walk, If I smile when you talk,
F
I can make all of this seem like it's not too forced,
Am
If I try and I try and I make you recall,
G
Then the hole in your heart won't be vacant no more,

    C
If I run when you walk, If I smile when you talk,
F
I can make all of this seem like it's not too forced,
Am
If I try and I try and I make you recall,
G
Then the hole in your heart won't be vacant no more,

G
Then the hole in your heart won't be vacant no more.

End on C
Добавлено: 26.07.2012
Другие материалы по этой песне:
  • Аккорды и текст

Страница создана 26.07.2012
http://primanota.ru/alterkicks/good-luck-chords.htm
Привет, Гость.
Предлагаем пройти революционный курс по гитаре.
Подарок от PrimaNota.Ru, забирай!