PrimaNota.ru - самый крупный в мире бесплатный архив песенных текстов, аккордов, табулатур и нот


Alter Session - Wala Ka Kabalo - таба, видео

Регистрация Запомнить меня
Войти через:  Facebook Google Twitter Vk Yandex Mail.ru

Alter Session - Wala Ka Kabalo - таба, видео

Печатать
Просмотров: 76
Band/Artist: Alter Session
Song: Wala Ka Kabalo
Chords By: L.G.T

I heard this song in the radio when the Alter Session band performed their 
accoustic version of “Wala ka kabalo” live at the studio of Wild Fm (April 29, 2012). 

Intro: G-C-; 3x D Dsus4 D Dsus2 D

Verse:
            G       C        G     C
Wala ka kabalo nga ako nasakitan
             G               C         D Dsus4 D Dsus2 D
Sa adlaw ikaw mulakaw wala ko nimu gipukaw
     Em             Bm       Em             Bm
Gusto ko mahibaw-an mo na sayop ang gibuhat mo
         C             Am           D Dsus4 D Dsus2 D
Kung makalimtan mo ang pasalubong nako

            G       C        G     C
Wala ka kabalo nga ako nasakitan
          G           C            D Dsus4 D Dsus2 D
Kay nakit-an tika may laing kaistorya
     Em             Bm        Em           Bm
Gusto ko mahibaw-an mo nga di ko under de saya
   C               Am            D Dsus4 D Dsus2 D
Ok lang nimu unya nalang ko maglaba

Chorus:
      C          D       Bm         Em
Inig atol sa gabie tupad ka nako permi
        Am                D          G    G7
Kay ang gugma mo sobra pilit pa sa ragbi
       C           D             Bm           Em
Inig mata ko sa buntag sayo kaayo ka nakalung-ag
            Am           D             G (back to intro)
Ang nakapan nimu wala ko binli og penirito

(Same chords as verse)
Wala ka kabalo nga ako nasakitan
Kung ikaw masulob-on ayaw'g hilak intawon
Gusto ko mahibaw-an mo na ang gugma ko nimu
Kini tinuoray o dili lumalabay

(Same chords as chorus)
Inig atol sa gabie tupad ka nako permi
Kay ang gugma mo sobra pilit pa sa ragbi
Inig mata ko sa buntag sayo kaayo ka nakalung-ag
Ang nakapan nimu wala ko binli og penirito

Adlib:(Do the verse chord pattern) 

Guitar solo:
e|------------------8-7----7-10-8-7-5-3-5-------------------------|
B|-----------7--5/7-----8----------------------------7-10-11------|
G|-----4-5-7------------------------------------7-9----------7-9--|
D|-5-7-------------------------------------7-10-------------------|
A|----------------------------------------------------------------|
E|----------------------------------------------------------------|

e|--7h9p7------7~--7h9p7------7~----------------------------------|
B|--------9-7--7~--------9-7--7~-------5-7-8-8/10-8-7-8-----------|
G|-------------------------------5-6-8--------------------10-8-7--|
D|----------------------------------------------------------------|
A|----------------------------------------------------------------|
E|----------------------------------------------------------------|

e|----------------------------------------------------------------|
B|----------------------------------------------------------------|
G|----------------------------------------------------------------|
D|--10-8-7--------------------------------------------------------|
A|---------10-8-7-------------------------------------------------|
E|----------------10-8-7-5----------------------------------------|

(Same chords as chorus)
Inig atol sa gabie tupad ka nako permi
Kay ang gugma mo sobra pilit pa sa ragbi
Inig mata ko sa buntag sayo kaayo ka nakalung-ag
Ang nakapan nimu wala ko binli og penirito

(Do the intro chords)

Wala ka kabalo... 
Добавлено: 08.07.2013
Другие материалы по этой песне:
  • Аккорды и текст

Страница создана 29.06.2013
http://primanota.ru/alter-session/wala-ka-kabalo-chords.htm
Привет, Гость.
Предлагаем пройти революционный курс по гитаре.
Подарок от PrimaNota.Ru, забирай!