PrimaNota.ru - самый крупный в мире бесплатный архив песенных текстов, аккордов, табулатур и нот


Alter Session - Bisyo - таба, видео

Регистрация Запомнить меня
Войти через:  Facebook Google Twitter Vk Yandex Mail.ru

Alter Session - Bisyo - таба, видео

Печатать
Просмотров: 81
Уроки эстрадного вокала в Санкт-Петербурге
Band/Artist: Alter Session
Song: Bisyo (Acoustic version)

I heard this song in the radio when the Alter Session band performed their song
“bisyo” in accoustic version live at the studio of Wild Fm (April 29, 2012).

Just listen to the song and you'll be able to find when to play each part.
By the way im not sure about this tabs, but for me it sounds similar to the original.

Intro: A-F#m-D-E-;

e|-----8-10-8----------10-8--------------8-6-5-6----|
B|--10---------10-8-10-------10-8-6-8/10------------|
G|--------------------------------------------------|repeat 2x
D|--------------------------------------------------|
A|--------------------------------------------------|
E|--------------------------------------------------|

Verse 1:
e|-----10-8----------------------8-6-5-6------------|
B|--10------10-10--11-10-8-6-8-6--------------------|
G|--------------------------------------------------| repeat 2x
D|--------------------------------------------------|
A|--------------------------------------------------|
E|--------------------------------------------------|
A         F#m     D       E
 Pagbantay bantay sa mga pasaway
A        F#m     D          E
 Wala ka kabalo ikaw ilang gitunto

e|-----10-12-10-8------------8-6-5-6----------------|
B|--10-----------10--8-6-8-6------------------------|
G|--------------------------------------------------| repeat 2x
D|--------------------------------------------------|
A|--------------------------------------------------|
E|--------------------------------------------------|
A          F#m    D               E
 Tungod sa bisyo celphone gi prinda nimu
A          F#m         D           E
 Tungod sa bisyo sugal diri inum didto

Verse 2: (same chord pattern)
Paglikay likay sa mga pasaway
Wala ka kabalo mura naka'g demonyo
Tungod sa bisyo celphone gi prinda nimu
Tungod sa bisyo para lang e suyop syabo

Chorus:
e|-------10-8-----10-8-------10-8-----10-8-------------10-8-----8--|
B|-10-10-------10------10-10-------10-------10b-8-10--------10b----|
G|-----------------------------------------------------------------|repeat 2x
D|-----------------------------------------------------------------|
A|-----------------------------------------------------------------|
E|-----------------------------------------------------------------|

   A       F#m        D
Likayi ang bisyo mo amigo
     E                A
Para lang kini kanimo
       F#m              D
Kung mahimo undangi ang bisyo mo
     E                F#m
Para lang kini kanimo
        E        D
Wala ba ka mabalaka
    E          F#m
Sa imong pamilya
     E          D
Na karon nangalisang
           E              F#m
Sa bisyong imung gisudlan
         E          D    E
Kung mahimo undanga na
           (do the intro again)
Ang bisyo mo

Verse 3: (same chord pattern)
Paglikay likay sa mga pasaway
Wala ka kabalo ikaw ilang gitunto
Tungod sa bisyo alahas gi prinda nimu
Tungod sa bisyo gibuwagan ka sa gf nimu.

(Repeat Chorus)

Adlib: (Do this chord pattern A-F#m-D-E-;)

e|--------------------------------------------------------------------------|
B|-----------8-10-10--10/11-10-8-6-6--6-8-8/10-8--10-8----------------------|
G|-10-10--10-------------------------------------------10-8----------6-8-10-|
D|----------------------------------------------------------10-8-6-8--------|
A|--------------------------------------------------------------------------|
E|--------------------------------------------------------------------------|

e ------8-10-8--------------------------|
B -8-10--------10-8---------------------|
G ------------------10-8----8b/-10-12---|
D -----------------------10-------------|
A --------------------------------------|
E --------------------------------------|


Chorus:
e|-------10-8-----10-8-------10-8-----10-8-------------10-8-----8--|
B|-10-10-------10------10-10-------10-------10b-8-10--------10b----|
G|-----------------------------------------------------------------|repeat 2x
D|-----------------------------------------------------------------|
A|-----------------------------------------------------------------|
E|-----------------------------------------------------------------|

   A       F#m        D
Likayi ang bisyo mo amigo
     E                A
Para lang kini kanimo
       F#m              D
Kung mahimo undangi ang bisyo mo
     E                F#m
Para lang kini kanimo
        E        D
Wala ba ka mabalaka
    E          F#m
Sa imong pamilya
     E          D
Na karon nangalisang
           E              F#m
Sa bisyong imung gisudlan
         E          D    E
Kung mahimo undanga na
             A  F#m  D  E
Ang bisyo mo
           A
Ang bisyo mo
    F#m    D      E
Likayi likayi likayi
          A
Ang bisyo mo

(Play this during outro part of the song)
e|--------------------------------------------------------------------------|
B|-----------8-10-10--10/11-10-8-6-6--6-8-8/10-8--10-8----------------------|
G|-10-10--10-------------------------------------------10-8----------6-8-10-|
D|----------------------------------------------------------10-8-6-8--------|
A|--------------------------------------------------------------------------|
E|--------------------------------------------------------------------------|

e ------8-10-8----------------------------|
B -8-10--------10-8-----------------------|
G ------------------10-8----8b/-10-12--10-|
D -----------------------10---------------|
A ----------------------------------------|
E ----------------------------------------|
Добавлено: 12.09.2013
Другие материалы по этой песне:
  • Аккорды и текст

Страница создана 24.06.2013
http://primanota.ru/alter-session/bisyo-chords.htm
Привет, Гость.
Предлагаем пройти революционный курс по гитаре.
Подарок от PrimaNota.Ru, забирай!