PrimaNota.ru - самый крупный в мире бесплатный архив песенных текстов, аккордов, табулатур и нот


Alter Bridge - Make It Right - текст песни, таба, бас-таба, видео

Регистрация Запомнить меня
Войти через:  Facebook Google Twitter Vk Yandex Mail.ru

Alter Bridge - Make It Right - текст песни, таба, бас-таба, видео

Печатать
Просмотров: 229
Intro/verse

Eb|--------------------------------|
Bb|--------------------------------|
Gb|-----0-------0------0-----0-----|
Db|-------------------0-0---0-0----|
Ab|-3-0---0--3-0-0---5---0-5---0---|
Eb|--5-----5--5---5-3-----3--------|

Eb|--------------------------------|
Bb|--------------------------------|
Gb|-----7------7------6------6-----|
Db|----7-7----7-7----7-7----7-7----|
Ab|---0---0--0---0--0---0--0---0---|
Eb|--5------5------5------5--------|

Добавлено: 25.04.2012
Другие материалы по этой песне:

Страница создана 11.03.2012
http://primanota.ru/alter-bridge/make-it-right-chords.htm
Привет, Гость.
Предлагаем пройти революционный курс по гитаре.
Подарок от PrimaNota.Ru, забирай!