PrimaNota.ru - самый крупный в мире бесплатный архив песенных текстов, аккордов, табулатур и нот


Alter Bridge - Cradle To The Grave - таба, бас-таба, видео

Регистрация Запомнить меня
Войти через:  Facebook Google Twitter Vk Yandex Mail.ru

Alter Bridge - Cradle To The Grave - таба, бас-таба, видео

Печатать
Просмотров: 121
Новый альбом группы 'Черный Кузнец' по культовому сериалу 'Сверхъестественное'!
Gm                               Eb
eb|---17\------------15\-----------|---------------------------------------------------||
Bb|--------13---15--------11---13--|13b14r13-11----------------------------------------||
Gb|-0PM--0PM--0PM--0PM--0PM--0PM-0PM-------------12-------\7---5b6r5-------------------||
Db|--------------------------------|-----------------------------------8---5-----------||
Ab|--------------------------------|-------------------------------------------3PHb4r3-||
Db|--------------------------------|---------------------------------------------------||

   D                                                                            Cm
eb|----------------------13-------15-------18--15h18p15----15-------18b20r18b22|r18-----|
Bb|-------------10--/11------/13------/15---------------18----18-15------------|--------|
Gb|------7--/7-----------------------------------------------------------------|--------|
Db|--/5------------------------------------------------------------------------|--------|
Ab|----------------------------------------------------------------------------|--------|
Db|----------------------------------------------------------------------------|--------|

   Cm                                 Gm
eb|--15------------------18----------|--------------------------------------------------|
Bb|-----15--18b20--18b20----18b20~~--|--------------------------------------------------|
Gb|----------------------------------|--------------------------------------------------|
Db|----------------------------------|------8-10p8---------8-10-------10-12p10----------|
Ab|----------------------------------|-8-10--------10-8-10------10-13----------13-10-13-|
Db|----------------------------------|--------------------------------------------------|

                                                  Eb
eb|-------------------------------------------|-----------13----------------------------|
Bb|-------------------------------------------|-----15b18----15-13-15-13-11--18b20-18b20|
Gb|-------------------12-15p12----------12-15-|12---------------------------------------|
Db|-10-12-------12-15----------15-12-15-------|-----------------------------------------|
Ab|-------13-15-------------------------------|-----------------------------------------|
Db|-------------------------------------------|-----------------------------------------|

                    D                                                              Cm      
eb|-------18----18-|15--13h15p13\10/13--------------------------------------------|-----|
Bb|/20b22----18----|-------------------15-13----------11--15PHb17r15b18--15-------|-----|
Gb|----------------|-------------------------15----12-----------------------18-17-|15b16|
Db|----------------|--------------------------------------------------------------|-----|
Ab|----------------|--------------------------------------------------------------|-----|
Db|----------------|--------------------------------------------------------------|-----|

   Cm                                                                      D
eb|-------------------15--15----------------------------------------------|17b18r17~----|
Bb|-------------------15-----18-15----18-15----------------15-18-15-------|-------------|
Gb|----------15--------------------17-------17-15----15-17----------17-15-|-------------|
Db|--17--15------17-------------------------------17----------------------|-------------|
Ab|-----------------------------------------------------------------------|-------------|
Db|-----------------------------------------------------------------------|-------------|

   D                             D
eb|-17-18-18b20~~--20b22-20b22--|-22b25~~-----||
Bb|-----------------------------|-------------||
Gb|-----------------------------|-------------||
Db|-----------------------------|-------------||
Ab|-----------------------------|-------------||
Db|-----------------------------|-------------||


************************************

| h   Hammer-on
| p   Pull-off
| r   Release
| b   Bend
| br  Bend release
| pb  Pre-bend
| pbr Pre-bend release
| /   Slide up
| \   Slide down
| ~   Vibrato
| PH  Pinch Harmonic

************************************
Добавлено: 19.02.2018
Другие материалы по этой песне:
  • Аккорды и текст

Страница создана 24.12.2017
http://primanota.ru/alter-bridge/cradle-to-grave-chords.htm
Привет, Гость.
Предлагаем пройти революционный курс по гитаре.
Подарок от PrimaNota.Ru, забирай!