PrimaNota.ru - самый крупный в мире бесплатный архив песенных текстов, аккордов, табулатур и нот


Alter Bridge - Coming Home - текст песни, таба, бас-таба, видео

Регистрация Запомнить меня
Войти через:  Facebook Google Twitter Vk Yandex Mail.ru

Alter Bridge - Coming Home - текст песни, таба, бас-таба, видео

Печатать
Просмотров: 155
Alter Bridge - Coming Home
From "Blackbird" Album
tabbed by jjhand
Drop B tuning (B A D G B E)


I think this is closer to what Alter Bridge plays in Live Amsterdam footage.
Please rate or comment.


Intro Riff w/ distortion & flanger (set to about 1/2 sec regen rate)
E--2---2-2---2-|-2---2-2---2--|--3---3-3---3-|-0---0-0---0--|--2---2-2---2-|
B--0---0-0---0-|-0---0-0---0--|--0---0-0---0-|-0---0-0---0--|--0---0-0---0-|
G----4-----4---|---4-----4----|----2-----2---|---2-----2----|----0-----0---|
D--------------|--------------|--------------|--------------|--------------|
A--------------|--------------|--------------|--------------|--------------|
B--------------|--------------|--------------|--------------|--------------|

E-2---2-2---2-|--0---0-0---0-|-2---2--0---0----|
B-0---0-0---0-|--0---0-0---0-|-3---3--2---2---o|
G---0-----0---|--------------|---0------0------|
D-------------|----2-----2---|-----------------|
A-------------|--------------|----------------o|
B-------------|--------------|-----------------|

Guitar 2 (plays on repeat)
            PM
E---------|-----------|------|------|---------|-----------|------|------------------|
B---------|-----------|------|------|---------|-----------|------|------------------|
G--4------|-----------|------|------|---------|-----------|------|------------------|
D--4------|-----------|------|------|--9------|-----------|------|------------------|
A--2------|--2-2-2----|------|------|--10-----|--2-2-2----|------|------------------|
B--0------|--0-0-0----|------|------|--8------|--0-0-0----|------|-----10h12p10-0-8-|


Pre-Verse Riff Guitar 1 (flanger off)
E-----------------|----------------|----------------|------------------|
B-----------------|----------------|----------------|------------------|
G--4--4-4--4--4-4-|--4--4-4--4--6--|--7--7-7--7--9--|--6--6-6--6--6-6--|
D-----------------|----------------|----------------|------------------|
A--2--2-2--2--2-2-|--2--2-2--2--4--|--5--5-5--5--7--|--4--4-4--4--4-4--|
B-----------------|----------------|----------------|------------------|
|Guitar 2
|    PM_                      PM_          PM       PM_                    PM_

PM
E-------------------------|-----------------------|------------------------|----------------------|
B-------------------------|-----------------------|------------------------|----------------------|
G-------------------------|-----------------------|------------------------|----------------------|
D-------------------------|-----------------------|------------------------|----------------------|
A--2--2-2-----------------|-2--2-2----------------|-2--2-2-----------------|-2--2-2---------------|
B--0--0-0-/12-12-12-12-12-|-0--0-0-/10h12p10-0-8--|-0--0-0-/10-10-10-10-10-|-0--0-0-/10h12p10-0-8-|

 Guitar 1
E------------------------|--------------------------|-----------------|-------|
B------------------------|--------------------------|-----------------|-------|
G--12--12-12--12--12-12--|--12--12-12--12-12--11-11-|-9--9-9--9-9--2--|-4b5r4-|
D------------------------|--------------------------|-----------------|-------|
A--10--10-10--10--10-10--|--10--10-10--10-10--9--9--|-7--7-7--7-7--0--|-2b3r2-|
B------------------------|--------------------------|-----------------|-------|
|
| Guitar 2
E---------------------|------------------|------------------------|--------------|
B---------------------|------------------|------------------------|--------------|
G---------------------|------------------|------------------------|--------------|
D---------------------|------------------|------------------------|-----0-----0--|
A--2--2-2-------------|-2--2-2-----------|-2--2-2-----------------|---0-----3----|
B--0--0-0-/8-8-8-8-8--|-0--0-0--7-8-3-3--|-0--0-0-/12-12-12-12-12-|-3-----1------|


Verse Riff - Both Guitars
|    PM_                       PM_           PM        PM_                      PM_

PM
E-------------------------|-----------------------|------------------------|----------------------|
B-------------------------|-----------------------|------------------------|----------------------|
G-------------------------|-----------------------|------------------------|----------------------|
D-------------------------|-----------------------|------------------------|----------------------|
A--2--2-2-----------------|-2--2-2----------------|-2--2-2-----------------|-2--2-2---------------|
B--0--0-0-/12-12-12-12-12-|-0--0-0-/10h12p10-0-8--|-0--0-0-/10-10-10-10-10-|-0--0-0-/10h12p10-0-8-|

E---------------------|-------------------|------------------------|---------------|--------------|
B---------------------|-------------------|------------------------|--------------o|--------------|
G---------------------|-------------------|------------------------|---------------|------------5-|
D---------------------|-------------------|------------------------|-----0-----1---|------0---5---|
A--2--2-2-------------|-2--2-2------------|-2--2-2-----------------|---0-----3----o|----0---3-----|
B--0--0-0-/8-8-8-8-8--|-0--0-0--3-5-5--3--|-0--0-0-/12-12-12-12-12-|-3-----1-------|--3-----------|


  Chorus (splits in 2 parts on next line)
   PM     PM_      PM__       PM__
E--------------------|-------------|----------------|----------------------|
B--------------------|-------------|----------------|--3---3-3---3---3-3---|
G--------------------|-------------|--------4---2---|--0---0-0---0---0-0---|
D--------------------|-------------|--4-----4---2---|--0---0-0---0---0-0---|
A--------------------|-------------|--4--2--2---0---|----------------------|
B--0-1b2r-0-0-1b2r-0-|-0-1b2r-0--0-|-----0----------|----------------------|


  Guitar 1
E-----------------|-----------------|----------------|--------------------|
B-----------------|-----------------|----------------|--------------------|
G--7--7-7--7/9-9--|-6--6-6--6--4-4--|----------------|--------------------|
D-----------------|-----------------|-4-------4---2--|-5---5-5---5---5-5--|
A--5--5-5--5/7-7--|-4--4-4--4--2-2--|-4---2---2---0--|-2---2-2---2---2-2--|
B-----------------|-----------------|-----0----------|--------------------|
|
| Guitar 2
E-----------------|-----------------|----------------|--------------------|
B-----------------|-----------------|----------------|-3---3-3---3---3-3--|
G-----------------|-2--2-2--2--2-2--|----------------|-0---0-0---0---0-0--|
D--0--0-0--0--0-0-|-2--2-2--2--2-2--|-4-------4---2--|-0---0-0---0---0-0--|
A--0--0-0--0--0-0-|-0--0-0--0--0-0--|-4---2---2---0--|--------------------|
B--3--3-3--3--3-3-|-----------------|-----0----------|--------------------|


  Guitar 1
E-----------------|-----------------|----------------|----------------|
B-----------------|-----------------|----------------|----------------|
G--7--7-7--7/9-9--|-6--6-6--6--4-4--|----------------|----------------|
D-----------------|-----------------|-4-------4---2--|-4--------------|
A--5--5-5--5/7-7--|-4--4-4--4--2-2--|-4---2---2---0--|-4---2---2------|
B-----------------|-----------------|-----0----------|-----0---0------|
|
| Guitar 2
E-----------------|-----------------|
B-----------------|-----------------|
G-----------------|-2--2-2--2--2-2--|
D--0--0-0--0--0-0-|-2--2-2--2--2-2--| same as above
A--0--0-0--0--0-0-|-0--0-0--0--0-0--|
B--3--3-3--3--3-3-|-----------------|

Verse 2: Play Verse Riff again


Chorus 2: Guitar 2 is same riff, Guitar 1 plays:
   PM     PM_      PM___      PM
E--------------------|----------------|----------------|-------------------|
B--------------------|----------------|----------------|-3---3-3---3---3-3-|
G--------------------|----------------|----------------|-0---0-0---0---0-0-|
D--------------------|----------------|-4-------4---2--|-0---0-0---0---0-0-|
A--------------------|----------------|-4---2---2---0--|-------------------|
B-0-1b2r-0--0-1b2r-0-|-0-1b2r-0--1/13-|-----0----------|-------------------|


E-----------------|----------------|----------------|--------------------|
B-----------------|----------------|----------------|-3---3-3---3---3-3--|
G--6/7--7--7/9--9-|-4/6--6--6\4--4-|----------------|-0---0-0---0---0-0--|
D-----------------|----------------|-4-------4---2--|-0---0-0---0---0-0--|
A--4/5--5--5/7--7-|-2/4--4--4\2--2-|-4---2---2---0--|--------------------|
B-----------------|----------------|-----0----------|--------------------|


E-----------------|----------------|----------------|--------------------|
B-----------------|----------------|----------------|-3---3-3---3---3-3--|
G--6/7--7--7/9--9-|-4/6--6--6\4--4-|----------------|-0---0-0---0---0-0--|
D-----------------|----------------|-4-------4---2--|-0---0-0---0---0-0--|
A--4/5--5--5/7--7-|-2/4--4--4\2--2-|-4---2---2---0--|--------------------|
B-----------------|----------------|-----0----------|--------------------|


E-----------------|-------------------|----------------|-------------------|
B-----------------|-------------------|----------------|-3---3-3---3---3-3-|
G--7/9--9--9/11-11|-4/6--6--6/7-------|----------------|-0---0-0---0---0-0-|
D-----------------|--------------4--2-|-4-------4---2--|-0---0-0---0---0-0-|
A--5/7--7--7/9--9-|-2/4--4--4/5--2--0-|-4---2---2---0--|-------------------|
B-----------------|-------------------|-----0----------|-------------------|

E-----------------|----------------|
B-----------------|----------------|
G--6/7--7--7/9--9-|-4/6--6--6\4--4-|
D-----------------|----------------|
A--4/5--5--5/7--7-|-2/4--4--4\2--2-|
B-----------------|----------------|

Breakdown (both guitars)
  PM     PM__      PM___    PM__      PM___     PM__
E--------------------|------------------|-------------------|-------------------------|
B--------------------|------------------|-------------------|-------------------------|
G--------------------|------------------|-------------------|-------------------------|
D--------------------|------------------|-------------------|-5p4p2-----4--2h4-0h2----|
A--------------------|---4h5------------|----0h2------------|------5p4p2----------4h5-|
B-0-1b2r-0--0-1b2r-0-|-0-----0-0-1b2r-0-|-0-----0--0-1b2r-0-|-------------------------|

  PM     PM__      PM___    PM__      PM___     PM__
E--------------------|------------------|-------------------|-3p2p0--------------0-------|
B--------------------|------------------|-------------------|------3p2p0-3--2h3p2--3-2-0-|
G--------------------|------------------|-------------------|----------------------------|
D--------------------|------------------|-------------------|----------------------------|
A--------------------|---4h5------------|---0h2-------------|----------------------------|
B-0-1b2r-0--0-1b2r-0-|-0-----0-0-1b2r-0-|-0-----0--0-1b2r-0-|----------------------------|

E-----------|----------|-----------|--------------------------|
B-----------|----------|-----------|--------------------------|
G-----------|----------|-----------|--------------------------|
D-----------|----------|-----------|-5p4p2-------4-2h4-0h2----|
A-----------|----------|-----------|-------5p4p2----------4h5-|
B--12~\0----|--8~\0----|--12~\0----|--------------------------|


E-----------|----------|-----------|--------------|
B-----------|----------|-----------|--------------|
G-----------|----------|-----------|--------------|
D-----------|----------|-----------|--------------|
A-----------|----------|-----------|--2--4--5--7--|
B--12~\0----|--8~\0----|--12~\0----|--0--2--3--5--|

Bridge - Both Guitars
------------------------|------------------------|
-3--3-3-3-3--3--3-3-3-3-|-5--5-5-5-5--5--5-5-5-5-|
-0--0-0-0-0--0--0-0-0-0-|-2--2-2-2-2--2--2-2-2-2-|
-0--0-0-0-0--0--0-0-0-0-|-2--2-2-2-2--2--2-2-2-2-|
------------------------|------------------------|
------------------------|------------------------|


break into 2 parts:
  Guitar 2 (bars 3-6)
E-----------------|-----------------|------------------------|--------------------------|
B-----------------|-----------------|-3--3-3-3-3--3--3-3-3-3-|-5--5-5-5-5--5--5-5-------|
G-----------------|-----------------|-0--0-0-0-0--0--0-0-0-0-|-2--2-2-2-2--2--2-2-------|
D--0--0-0---------|---------2---2-2-|-0--0-0-0-0--0--0-0-0-0-|-2--2-2-2-2--2--2-2-------|
A--0--0-0--4--4-4-|-2--2-2--0---0-0-|------------------------|--------------------0h2---|
B--3--3-3--2--2-2-|-0--0-0----------|------------------------|--------------------------|
|
| Guitar 1
E-----------------|-------------------|------------------------|---------------|
B-----------------|-------3-5-7-5-7-5-|--3~--------------------|--5--3--2------|
G-----------------|-------4-6-7-6-7-6-|--4~--------------------|--6--4--3------|
D-----------------|-------------------|------------------------|---------------|
A-----------------|-------------------|------------------------|---------------|
B-----------------|-------------------|------------------------|---------------|

 Guitar 2
E---------------------|-------------------|
B---------------------|-------------------|
G---------------------|-------------------|
D---------------------|-------------------|  repeat bridge from beginning
A---------------------|----4h5-----0h2----|
B--0-1b2r-0--0-1b2r-0-|--0-----0-0-----0--|
|
|Guitar 1
|  dive trem bar 1 octave
E---------------------|-------------------|-----------------------|--------|
B--*5\\\\-------------|-------------------|-3--3-3-3-3-3--3-3-3-3-|-5------|
G---------------------|-------------------|-0--0-0-0-0-0--0-0-0-0-|-2------|
D---------------------|-------------------|-0--0-0-0-0-0--0-0-0-0-|-2------|
A---------------------|-------------------|-----------------------|--same--|
B---------------------|-------------------|-----------------------|-rhythm-|


  Guitar 2 - repeat bars 3-6 above
|
| Guitar 1
E-----------------|-------------------|--------------------|---------------|
B-----------------|-------3-5-7-5-7-5-|--3~----------------|--(3~)---------|
G-----------------|-------4-6-7-6-7-6-|--4~----------------|--(4~)---------|
D-----------------|-------------------|--------------------|---------------|
A-----------------|-------------------|--------------------|---------------|
B-----------------|-------------------|--------------------|---------------|


 Guitar 2
E---------------------|------------------|------------------|-----------------------------|
B---------------------|------------------|------------------|-----------------------------|
G---------------------|------------------|------------------|-----------------------------|
D---------------------|------------------|------------------|-5p4p2------4--------2-------|
A---------------------|---4h5------------|---0h2------------|-------5p4p2--4h5p4---5-4-2--|
B--0-1b2r-0--0-1b2r-0-|-0-----0-0-1b2r-0-|-0-----0-0-1b2r-0-|-----------------------------|
|
|Guitar 1 (all harmonic feedback)
E---------------------|------------------|----------------------|------------------------|
B--(3~)---------------|------------------|--*3~-----------------|--(*3~)-----------------|
G--(4~)-----*4~-------|--(*4~)-----------|-(*4~)----------------|--(*4~)-----------------|
D---------------------|------------------|----------------------|------------------------|
A---------------------|------------------|----------------------|------------------------|
B---------------------|------------------|----------------------|------------------------|

Play Chorus 2 again, starting at 3rd measure after bends, then:

Ending
  PM     PM__      PM___    PM__      PM___     PM__
E--------------------|------------------|-------------------|-3p2p0--------------0-------|-----|
B--------------------|------------------|-------------------|------3p2p0-3--2h3p2--3-2-0-|-----|
G--------------------|------------------|-------------------|----------------------------|-----|
D--------------------|------------------|-------------------|----------------------------|-----|
A--------------------|---4h5------------|---0h2-------------|----------------------------|-----|
B-0-1b2r-0--0-1b2r-0-|-0-----0-0-1b2r-0-|-0-----0--0-1b2r-0-|----------------------------|--0--|


Key:
PM - palm mute
*  - harmonic
h  - hammer-on
p  - pull-off
~  - vibrato
\  - slide down
/  - slide up
Добавлено: 26.07.2013
Другие материалы по этой песне:

Страница создана 24.04.2012
http://primanota.ru/alter-bridge/coming-home-chords.htm
Привет, Гость.
Предлагаем пройти революционный курс по гитаре.
Подарок от PrimaNota.Ru, забирай!