PrimaNota.ru - самый крупный в мире бесплатный архив песенных текстов, аккордов, табулатур и нот


Altaria - Crucifix - таба, видео

Регистрация Запомнить меня
Войти через:  Facebook Google Twitter Vk Yandex Mail.ru

Altaria - Crucifix - таба, видео

Печатать
Просмотров: 134
Tabbed by: Jeremy Linda
Email: Jerejoe@comcast.net

Tuning: Standard

First tab so please forgive my awkward spacing on some parts.

Intro
e|-------------------|-------------------------------|
B|-------------------|-------------------------------|
G|------2--2----2-2--|-----9----7---10---9----7---9\-| 
D|----2-2--2--2-2-2--|-----10---9---12---10---9---10\| x4
A|----2-0--0--2-0-0--|-0-0----0---0----0----0---0----|
E|----0-------0------|-------------------------------|

e|-------------------------------------------|
B|-------------------------------------------| dont know the lead that
G|-------------------------------------------| goes along with this part,
D|----10----10----10----10----10----10---2---| sorry
A|-8-8-8-8-8-8-7-7-7-7-7-7-6-6-6-6-6-6---2---|
E|---------------------------------------0-4+|

e|---------------------------------------------------------|
B|---------------------------------------------------------|
G|-2-------------------------------9----7---10---7---9-----|
D|-2---------------2---------------10---9---12---9---10----|
A|-0---3---5---5---0---3---5---0-0----0---0----0---0-------|
E|-----1---3---4-------1---3-------------------------------|

e|---------------------------------------------------------------|
B|---------------------------------------------------------------|
G|-2-------------------------------------------------------------|
D|-2---------------2--------------2-----2---2-----2-----2---2----|
A|-0---3---5---5---0---3---5------2-----2---2-----2-----2---2----|
E|-----1---3---4-------1---3--0-0---0-0---0---0-0---0-0---0------|

e|---------------------------------------------------------------------------
B|---------------------------------------------------------------------------
G|---------------------------------------------------------------------------
D|-------------------------------------------------------2-----2---2-----2---
A|-----3-----3---3------5-----5---5------5-----5---5-----2-----2---2-----2---
E|-1-1-1-1-1-1-1-1--3-3-3-3-3-3-3-3--4-4-4-4-4-4-4-4-0-0---0-0---0---0-0-----

e|------------|-----------------------------|
B|------------|-----------------------------|
G|------------|-----9----7---10---7---9-----|
D|---2-0------|-----10---9---12---9---10--x4|
A|-------3-2--|-0-0----0---0----0---0-------|
E|-0----------|-----------------------------|

e|-------------------------------------------|
B|-------------------------------------------|
G|-------------------------------------------|
D|----10----10----10----10----10----10---2---|
A|-8-8-8-8-8-8-7-7-7-7-7-7-6-6-6-6-6-6---2---|
E|---------------------------------------0-4+|

e|---------------------------------------------------------|
B|---------------------------------------------------------|
G|-2-------------------------------9----7---10---7---9-----|
D|-2---------------2---------------10---9---12---9---10----|
A|-0---3---5---5---0---3---5---0-0----0---0----0---0-------|
E|-----1---3---4-------1---3-------------------------------|

e|---------------------------------------------------------------|
B|---------------------------------------------------------------|
G|-2-------------------------------------------------------------|
D|-2---------------2--------------2-----2---2-----2-----2---2----|
A|-0---3---5---5---0---3---5------2-----2---2-----2-----2---2----|
E|-----1---3---4-------1---3--0-0---0-0---0---0-0---0-0---0------|

e|--------------------------------------------------------------------------|
B|--------------------------------------------------------------------------|
G|--------------------------------------------------------------------------|
D|-------------------------------------------------------2-----2---2-----2--|
A|-----3-----3---3------5-----5---5------5-----5---5-----2-----2---2-----2--|
E|-1-1-1-1-1-1-1-1--3-3-3-3-3-3-3-3--4-4-4-4-4-4-4-4-0-0---0-0---0---0-0----|

e|------------|-----------------------------|
B|------------|-----------------------------|
G|------------|-----9----7---10---7---9-----|
D|---2-0------|-----10---9---12---9---10--x4|
A|-------3-2--|-0-0----0---0----0---0-------|
E|-0----------|-----------------------------|

e|-------------------------------------------|
B|-------------------------------------------|
G|-------------------------------------------|
D|----10----10----10----10----10----10---2---|
A|-8-8-8-8-8-8-7-7-7-7-7-7-6-6-6-6-6-6---2---|
E|---------------------------------------0-4+|

e|--------------------------------------------------------------------|
B|--------------------------------------------------------------------|
G|--9-10-7-9----7---9-10-7-9----7---9-10-7-9----7---------------------|
D|-----------10---9----------10---9----------10---9-10-7-9-6-7--------|x2
A|-------------------------------------------------------------7-8-7--|
E|--------------------------------------------------------------------|

e|--------------------------------------------------------------------------|
B|--------------------------------------------------------------------------|
G|--14-15-12-14----12----14-15-12-14----12----14-15-12-14----12-------------|
D|--------------15----14-------------15----14-------------15----14-15-12-14-|
A|--------------------------------------------------------------------------|
E|--------------------------------------------------------------------------|

e|--------------------|
B|--------------------|
G|--------------------|
D|--11-12-------------|
A|--------12-13-12----|
E|--------------------|

e|--------------------------------------------------------------------|
B|--------------------------------------------------------------------|
G|--9-10-7-9----7---9-10-7-9----7---9-10-7-9----7---------------------|
D|-----------10---9----------10---9----------10---9-10-7-9-6-7--------|
A|-------------------------------------------------------------7-8-7--|
E|--------------------------------------------------------------------|

solo
e|-0-4-5-0-5-7-0-7-8-0-8-10-0-10-8-10--13-12-10----------------------------|
B|----------------------------------------------13-12-10-13-12-10----------|
G|----------------------------------------------------------------12-10-9--|
D|-------------------------------------------------------------------------|
A|-------------------------------------------------------------------------|
E|-------------------------------------------------------------------------|

e|---------------------------8-5-------5-8-5-------5-10-7-------7-10-7------|
B|-------------------------------6---6-------7---7--------8---8-------9----9|
G|---------------------------------5-----------8------------7-----------10--|
D|-12-10-9-12-10-9----------------------------------------------------------|
A|-----------------12-10-12-------------------------------------------------|
E|--------------------------------------------------------------------------|

e|-7-12-8---------8-13-10----------10-15-12----------12-17-13----------13---|
B|--------10---10---------12----12----------13-12-13----------15----15------|
G|-----------9---------------13----------------------------------16---------|
D|--------------------------------------------------------------------------|
A|--------------------------------------------------------------------------|
E|--------------------------------------------------------------------------|

e|-------15-13-12-----------------------------------------------------------|
B|-17-------------15-13-12-15-13-12-----------------------------------------|
G|----16----------------------------16-14-13-16-14-13-----------------------|
D|----------------------------------------------------15-14-12-15-14-12-----|
A|--------------------------------------------------------------------------|
E|--------------------------------------------------------------------------|

e|--------------------------------------------------|
B|--------------------------------------------------|
G|--------------------------------------------------|
D|--------------------------------------------------|
A|-15-14-12-11-12-14-11-12--------------------------|
E|--------------------------------------------------|

solo end

e|---------------------------------------------------------|
B|---------------------------------------------------------|
G|-2-------------------------------9----7---10---7---9-----|
D|-2---------------2---------------10---9---12---9---10----|x2
A|-0---3---5---5---0---3---5---0-0----0---0----0---0-------|
E|-----1---3---4-------1---3-------------------------------|

e|-------------|-------------------------------|
B|-------------|-------------------------------|
G|-2----2------|-----9----7---10---9----7---9--| 
D|-2--2-2------|-----10---9---12---10---9---10-| x8
A|-0--2-0------|-0-0----0---0----0----0---0----|
E|----0--------|-------------------------------|

e|-------------------------------------------|
B|-------------------------------------------|
G|-------------------------------------------|
D|----10----10----10----10----10----10---2---|
A|-8-8-8-8-8-8-7-7-7-7-7-7-6-6-6-6-6-6---2---|
E|---------------------------------------0-4+|

dont know the end part either, sorry

If I messed up on a part or you have any questions email me :D
************************************

| \   slide down
| +   harmonic
Добавлено: 24.03.2012
Вам также может быть интересно:
Другие материалы по этой песне:
  • Аккорды и текст

Страница создана 24.03.2012
http://primanota.ru/altaria/crucifix-chords.htm
Привет, Гость.
Предлагаем пройти революционный курс по гитаре.
Подарок от PrimaNota.Ru, забирай!