PrimaNota.ru - самый крупный в мире бесплатный архив песенных текстов, аккордов, табулатур и нот


Alt-j - Interlude 2 - аккорды и текст, таба, бас-таба, видео

Регистрация Запомнить меня
Войти через:  Facebook Google Twitter Vk Yandex Mail.ru

Alt-j - Interlude 2 - аккорды и текст, таба, бас-таба, видео

Печатать
Просмотров: 541
Новый альбом группы 'Черный Кузнец' по культовому сериалу 'Сверхъестественное'!
Авторы: Gus Unger-Hamilton, Thom Green, Joe Newman, Gwil Sainsbury

Interlude 2
Alt-j
Часть 1:
D|-----------0-------2-------0-----------------------------------------------|
A|---0--7/-9---0-------0-------0---------------------------------------------|
F#|---0----------0-------0-------0-------------------------------------------|
D|---------------------------------------------------------------------------|
A|---------------------------------------------------------------------------|
D|0----------------4-------2-------------------------------------------------|
Играется дважды

Часть 2:
D|-----------0-------0-------0-----------------------------------------------|
A|--0---10h9---0-------0-------0---------------------------------------------|
F#|---0----------0-------0-------0-------------------------------------------|
D|---------------------------------------------------------------------------|
A|---------------------------------------------------------------------------|
D|0----------------4-------2-------------------------------------------------|
Часть 3:
D|-----------0-------2-------0-----------------------------------------------|
A|---0--7/-9---0-------0-------0---------------------------------------------|
F#|---0----------0-------0-------0-------------------------------------------|
D|---------------------------------------------------------------------------|
A|---------------------------------------------------------------------------|
D|0----------------4-------2-------------------------------------------------|

Часть 4:
D|------12h11-0-------0-------0----------------------------------------------|
A|--0-----------0-------0-------0--------------------------------------------|
F#|---0-----------0-------0-------0------------------------------------------|
D|---------------------------------------------------------------------------|
A|0-------------------------0------------------------------------------------|
D|------------------9--------------------------------------------------------|
Играется дважды

Part 5:
D|--0--------0-------0-----0---------0-----0---------------------------------|
A|----0--------0-------0-----0---------0-----0-------------------------------|
F#|----0---------0-------0---------------0-----------------------------------|
D|0-----2/-4-----------------------------------------------------------------|
A|-----------------------------0h2-------------0h2---------------------------|
D|-----------------5---------------2-----------------------------------------|
Играется всё вместе ещё раз, но пятую часть немного переделать в конце:

D|--0--------0-------0-----0---------0-----0---------------------------------|
A|----0--------0-------0-----0---------0-----0-------------------------------|
F#|----0---------0-------0---------------0-----------------------------------|
D|0-----2/-4-----------------------------------------------------------------|
A|-----------------5-----------0h2-------------0h2/5-------------------------|
D|---------------------------------2-----------------0-----------------------|
Добавлено: 23.06.2018
Другие материалы по этой песне:

Страница создана 17.09.2013
http://primanota.ru/alt-j/interlude-2-chords.htm
Привет, Гость.
Предлагаем пройти революционный курс по гитаре.
Подарок от PrimaNota.Ru, забирай!