PrimaNota.ru - самый крупный в мире бесплатный архив песенных текстов, аккордов, табулатур и нот


Alsum Mark - Marks 2nd - таба, видео

Регистрация Запомнить меня
Войти через:  Facebook Google Twitter Vk Yandex Mail.ru

Alsum Mark - Marks 2nd - таба, видео

Печатать
Просмотров: 80
			" Mark's 2nd "

E:--------------------------|--------------------------
B:--------2--------2--------|--------2--------2--------
G:-----1--------1--------1--|-----2--------2--------2-- 2x
D:--2--------2--------2-----|--0--------0--------0-----
A:--------------------------|--------------------------
E:--------------------------|--------------------------

E:--------0-----------------|--------0-----------------
B:--------2-----------------|--------2-----------------
G:--------1-----------------|--------2----------------- 2x
D:-----2--2-----------------|-----0--0-----------------
A:--0-----------------------|--o-----------------------
E:--------------------------|--------------------------

E:--0-----------------------|--0-----------------------
B:--2-----------------------|--2-----------------------
G:--1-----------------------|--2----------------------- 4x
D:--2-----------------------|--0-----------------------
A:--0-----------------------|--0-----------------------
E:--------------------------|--------------------------

E:--0-----------0-----------|--0-----------0-----------
B:--2-----------0-----------|--0-----------0-----------
G:--2-----------2-----------|--2-----------2----------- 2x
D:--2-----------2-----------|--0-----------1-----------
A:--0-----------0-----------|--0-----------------------
E:--0-----------0-----------|--------------------------

E:--0-----------------------|--0-----------------------
B:--2-----------------------|--2-----------------------
G:--1-----------------------|--2----------------------- 4x
D:--2-----------------------|--0-----------------------
A:--0-----------------------|--0-----------------------
E:--------------------------|--------------------------

E:--0-----------0-----------|--0-----------0-----------
B:--2-----------0-----------|--0-----------0-----------
G:--2-----------2-----------|--2-----------2----------- 2x
D:--2-----------2-----------|--0-----------1-----------
A:--0-----------0-----------|--0-----------------------
E:--0-----------0-----------|--------------------------

E:--0--------|--0--------|--0---------|--0--------|--0--------|--0-----0----
B:--3--------|--5--------|--7---------|--5--------|--3--------|--3-------3--
G:--0--------|--0--------|--0---------|--0--------|--0--------|--0---------0
D:--3--------|--5--------|--7---------|--5--------|--3--------|--3----------
A:--1--------|--3--------|--5---------|--3--------|--1--------|--1----------
E:--0--------|--0--------|--0---------|--0--------|--0--------|--0----------

E:--------------------------|--------------------------
B:--------2--------2--------|--------2--------2--------
G:-----1--------1--------1--|-----2--------2--------2-- 2x
D:--2--------2--------2-----|--0--------0--------0-----
A:--------------------------|--------------------------
E:--------------------------|--------------------------

E:--------0-----------------|--------0-----------------
B:--------2-----------------|--------2-----------------
G:--------1-----------------|--------2----------------- 2x
D:-----2--2-----------------|-----0--0-----------------
A:--0-----------------------|--o-----------------------
E:--------------------------|--------------------------

E:--0-----------------------|--0-----------------------
B:--2-----------------------|--2-----------------------
G:--1-----------------------|--2----------------------- 4x
D:--2-----------------------|--0-----------------------
A:--0-----------------------|--0-----------------------
E:--------------------------|--------------------------

E:--0-----------0-----------|--0-----------0-----------
B:--2-----------0-----------|--0-----------0-----------
G:--2-----------2-----------|--2-----------2----------- 2x
D:--2-----------2-----------|--0-----------1-----------
A:--0-----------0-----------|--0-----------------------
E:--0-----------0-----------|--------------------------

E:--0--------|--0--------|--0---------|--0--------|--0--------|--0----0---
B:--3--------|--5--------|--7---------|--5--------|--3--------|--3----5---
G:--0--------|--0--------|--0---------|--0--------|--0--------|--0----0---
D:--3--------|--5--------|--7---------|--5--------|--3--------|--3----5---
A:--1--------|--3--------|--5---------|--3--------|--1--------|--1----3---
E:--0--------|--0--------|--0---------|--0--------|--0--------|--0----0---

E:--3------------2----------|--3-----------------------
B:--3------------3----------|--3-----------------------
G:--0------------2----------|--0----------------------- 4x
D:--0------------0----------|--2-----------------------
A:--2-----------------------|--3-----------------------
E:--3-----------------------|--------------------------

E:--------------------------|--------------------------
B:--------2--------2--------|--------2--------2--------
G:-----1--------1--------1--|-----2--------2--------2-- 2x
D:--2--------2--------2-----|--0--------0--------0-----
A:--------------------------|--------------------------
E:--------------------------|--------------------------

E:--------------------------|--------------------------
B:--------2--------2--------|--------2--------2--------
G:-----------1--------1-----|-----------2--------2----- 2x
D:-----2--------2--------2--|-----0--------0--------0--
A:--0-----------------------|--0-----------------------
E:--------------------------|--------------------------

E:--0-----------------------|--0--------------1--------|----------0-------
B:--2-----------------------|--3-----------------3-----|--------2---------
G:--1-----------------------|--2--------------------2--|------1-----------theend
D:--2-----------------------|--3-----------------------|----2-------------
A:--0-----------------------|--0-----------------------|--0---------------
E:--------------------------|--------------------------|------------------

			-From me to you.
     
Добавлено: 06.12.2013
Другие материалы по этой песне:
  • Аккорды и текст

Страница создана 06.12.2013
http://primanota.ru/alsum-mark/marks-2nd-chords.htm
Привет, Гость.
Предлагаем пройти революционный курс по гитаре.
Подарок от PrimaNota.Ru, забирай!