PrimaNota.ru - самый крупный в мире бесплатный архив песенных текстов, аккордов, табулатур и нот


Alpine - Lovers 1 - таба, видео

Регистрация Запомнить меня
Войти через:  Facebook Google Twitter Vk Yandex Mail.ru

Alpine - Lovers 1 - таба, видео

Печатать
Просмотров: 53
i put a capo on seven for the easiest play possible.

e|---------------------------------------------------------------------------|
B|--3-----3------3-----3------3------3-----3------3------3-----3-------------|
G|-----2-----2------2-----2-------2----2------2------2-------2----2----------|
D|---------------------------------------------------------------------------|
A|---------------------------------------------------------------------------|
E|---------------------------------------------------------------------------|
  Lyrics- High

e|--------------------------------------------0--------0---------------------|
B|---3-------3-------3------3-------3---------3--------3--------0------0-----|
G|-------2------2-------2-------2--------2--------2--------2--------2-----2--|
D|---------------------------------------------------------------------------|
A|---------------------------------------------------------------------------|
E|---------------------------------------------------------------------------|
  Lyrics- A-all lovers go

e|--------3------3-----3------3------3-----3------3------3-----3-------------|
B|--3-----3------3-----3------3------3-----3------3------3-----3-------------|
G|-----2-----2------2-----2-------2----2------2------2-------2----2----------|
D|---------------------------------------------------------------------------|
A|---------------------------------------------------------------------------|
E|---------------------------------------------------------------------------|
  Lyrics-

e|---3-------3-------3------3-------3---------0--------0--------3------3-----|
B|---3-------3-------3------3-------3---------3--------3--------0------0-----|
G|-------2------2-------2-------2--------2--------2--------2--------2-----2--|
D|---------------------------------------------------------------------------|
A|---------------------------------------------------------------------------|
E|---------------------------------------------------------------------------|
  Lyrics- A-all lovers go

e|--------3------3-----3------3------3-----3------3------3-----3-------------|
B|--3-----3------3-----3------3------3-----3------3------3-----3-------------|
G|-----2-----2------2-----2-------2----2------2------2-------2----2----------|
D|---------------------------------------------------------------------------|
A|---------------------------------------------------------------------------|
E|---------------------------------------------------------------------------|
  Lyrics-

e|---3-------3-------3------3-------3---------0--------0--------3------3-----|
B|---3-------3-------3------3-------3---------3--------3--------0------0-----|
G|-------2------2-------2-------2--------2--------2--------2--------2-----2--|
D|---------------------------------------------------------------------------|
A|---------------------------------------------------------------------------|
E|---------------------------------------------------------------------------|
  Lyrics- A-all lovers go
e|--------3------3-----3------3------3-----3------3------3-----3-------------|
B|--3-----3------3-----3------3------3-----3------3------3-----3-------------|
G|-----2-----2------2-----2-------2----2------2------2-------2----2----------|
D|---------------------------------------------------------------------------|
A|---------------------------------------------------------------------------|
E|---------------------------------------------------------------------------|

e|---3-------3-------3------3-------3---------0--------0--------0------3-----3|
B|---3-------3-------3------3-------3---------2--------2--------2------0--0--0|
G|-------2------2-------2-------2--------2--------2--------2--------2---------|
D|----------------------------------------------------------------------------|
A|----------------------------------------------------------------------------|
E|----------------------------------------------------------------------------|

for the rest of the song until 1:44
e|--------3------3-----3------3------3-----3------3------3-----3-------------|
B|--3-----3------3-----3------3------3-----3------3------3-----3-------------|
G|-----2-----2------2-----2-------2----2------2------2-------2----2----------|
D|---------------------------------------------------------------------------|
A|---------------------------------------------------------------------------|
E|---------------------------------------------------------------------------|
  
e|---3-------3-------3------3-------3---------0--------0--------3------3-----|
B|---3-------3-------3------3-------3---------3--------3--------0------0-----|
G|-------2------2-------2-------2--------2--------2--------2--------2-----2--|
D|---------------------------------------------------------------------------|
A|---------------------------------------------------------------------------|
E|---------------------------------------------------------------------------|


@1:44- outro
e|---------------------------------------------------------------------------|
B|----x--0---x--0---x--0---x--0---x--0---x--0---x--0---x--0---x--0---x--0----|
G|--------2-----2------2------2------2------2------2------2------2------2----|
D|---------------------------------------------------------------------------|
A|---------------------------------------------------------------------------|
E|---------------------------------------------------------------------------|
 
and then finally on top of that is the lead into Lovers 2
e|--0-----0000----00-----x---222---0-----0000----00-----x---222--------------|
B|-----0-------0-----0----------------0-------0-----0------------------------|
G|---------------------------------------------------------------------------|
D|---------------------------------------------------------------------------|
A|---------------------------------------------------------------------------|
E|---------------------------------------------------------------------------|

************************************

| /   slide up
| \   slide down
| h   hammer-on
| p   pull-off
| ~   vibrato
| +   harmonic
| x   Mute note
| b   Bend
| pb  Pre-bend
| br  Bend release
| pbr Pre-bend release
| brb Bend release bend

************************************
Добавлено: 07.12.2015
Другие материалы по этой песне:
  • Аккорды и текст

Страница создана 07.12.2015
http://primanota.ru/alpine/lovers-1-chords.htm
Привет, Гость.
Предлагаем пройти революционный курс по гитаре.
Подарок от PrimaNota.Ru, забирай!