PrimaNota.ru - самый крупный в мире бесплатный архив песенных текстов, аккордов, табулатур и нот


Alpine - Gasoline - таба, видео

Регистрация Запомнить меня
Войти через:  Facebook Google Twitter Vk Yandex Mail.ru

Alpine - Gasoline - таба, видео

Печатать
Просмотров: 128
Intro/1st Verse


Acoustic the song is played like this. On the record the intro riff is played 
throughout all the verses and chorus an octave (12 frets) higher and a keyboard plays the chords. 


e|----0--3------3--6------5--8------5--8-|
B|---1---------4---------6---------6-----|
G|--2---------5---------7---------7------|
D|-3---------6---------8---------8-------|
A|---------------------------------------|
E|---------------------------------------|

2nd Verse/Chorus

e|--------0---------3---------5---------5--------|
B|--------1---------4---------6---------6--------|
G|--------2---------5---------7---------7--------|
D|-----------------------------------------------|
A|-----------------------------------------------|
E|--1--1------4--4------6--6------6--6-----------|

Bridge

Again on the record the chords are played by a keyboard
e|----------------------------------------|
B|--5------5------------------------------|
G|--5------5---7---5-----5----------------|
D|--7------7---5---7-----3----------------|
A|--8------8---7---6-----5----------------|
E|----------------------------------------|

On the record the guitar plays this an octave higher with slight variations. 

e|----------------------------------------|----------------------------------------|
B|----------------------------------------|--4h6p4-4h6p4-4h6p4h6p4h6p4-------------|
G|--5h7p5--5h7p5--5h7p5--5h7p5------------|----------------------------------------|
D|----------------------------------------|----------------------------------------|
A|----------------------------------------|----------------------------------------|
E|----------------------------------------|----------------------------------------|


There's gasoline in your heart
There's fire in mine
I know I'm never gunna light you
But there's always night time

There's a light I've found in your eyes,
That I've never found in mine
I know I, I could never ever show you
But there's always night time

I wish it wasn't just the night time x3

There's gasoline in your heart
I could have your fire
I know that this is momentary
Imagine it's night time

I wish it wasn't just the night time x3

Can you feel? x2

I wish it wasn't just the night time x many
Добавлено: 27.08.2013
Другие материалы по этой песне:
  • Аккорды и текст

Страница создана 27.08.2013
http://primanota.ru/alpine/gasoline-chords.htm
Привет, Гость.
Предлагаем пройти революционный курс по гитаре.
Подарок от PrimaNota.Ru, забирай!