PrimaNota.ru - самый крупный в мире бесплатный архив песенных текстов, аккордов, табулатур и нот


Alphabeat - Cold Shoulder - таба

Регистрация Запомнить меня
Войти через:  Facebook Google Twitter Vk Yandex Mail.ru

Alphabeat - Cold Shoulder - таба

Печатать
Просмотров: 191
THE ALPHA BEAT
COLD SHOULDER
2006


INTRO

GUITAR 1

    A     Fm     D      A

e---5------2-----5------5------|
B---5------2-----7------5------|
G---6------2-----7------6------|
D---7------4-----7------7------|
A---7------4-----5------7------|
E---5------2------------5------|

GUITAR 2

    A     Fm     D      A

e---5------2-----5------5------|
B---5------2-----7------5------|
G---6------2-----7------6------|
D---7------4-----7------7------|
A---7------4-----5------7------|
E---5------2------------5------|

VERSE

GUITAR 1


e---5--5--7--5--7--5--7--5--7--7--7--7--9--7--9--7-----------|
B---5--5--5--5--5--5--5--5--7--7--7--7--9--7--9--7-----------|
G---6--6--6--6--6--6--6--6--7--7--7--7--9--7--9--7-----------|
D------------------------------------------------------------|
A------------------------------------------------------------|
E------------------------------------------------------------|


GUITAR 2                                                WHOLE THING X4


e---5--5--5--5--5--5--5--5--7--7--7--7--9--7--9--7-----------|
B---5--5--5--5--5--5--5--5--7--7--7--7--9--7--9--7-----------|
G---6--6--6--6--6--6--6--6--7--7--7--7--9--7--9--7-----------|
D---7--7--7--7--7--7--7--7--9--9--9--9--11-9--11-9-----------|
A---7--7--7--7--7--7--7--7--9--9--9--9--11-9--11-9-----------|
E---5--5--5--5--5--5--5--5--7--7--7--7--9--7--9--7-----------|


CHORUS


GUITAR 1

    A     Fm     D      A

e---5------2-----5------5------|
B---5------2-----7------5------|
G---6------2-----7------6------|
D---7------4-----7------7------|
A---7------4-----5------7------|
E---5------2------------5------|

GUITAR 2                            WHOLE THING X2

    A     Fm     D      A

e---5------2-----5------5------|
B---5------2-----7------5------|
G---6------2-----7------6------|
D---7------4-----7------7------|
A---7------4-----5------7------|
E---5------2------------5------|


SOLO

GUITAR 1

e--7-/-9---7--5--7--5---------7-/-9---7--5---12-12-12-12-10--9-------|
B--5-/-7---7--7--7--7--7--5---5-/-7---7--7---14-14-14-14-12--10------|
G----------------------6--4------------------------------------------|
D--------------------------------------------------------------------|
A--------------------------------------------------------------------|
E--------------------------------------------------------------------|

e--7-/-9---7--5--7--5-----------------5----------9--X--7--------------|
B--5-/-7---7--7--7--7--7--5----5-/-7--5---5-/-7--9--X--7--------------|
G----------------------6--4----4-/-6------4-/-6-----------------------|
D---------------------------------------------------------------------|
A---------------------------------------------------------------------|
E---------------------------------------------------------------------|


GUITAR 2


e---5--5--5--5--5--5--5--5--7--7--7--7--9--7--9--7-----------|
B---5--5--5--5--5--5--5--5--7--7--7--7--9--7--9--7-----------|
G---6--6--6--6--6--6--6--6--7--7--7--7--9--7--9--7-----------|
D---7--7--7--7--7--7--7--7--9--9--9--9--11-9--11-9-----------|
A---7--7--7--7--7--7--7--7--9--9--9--9--11-9--11-9-----------|
E---5--5--5--5--5--5--5--5--7--7--7--7--9--7--9--7-----------|


THEN ONE MORE VERSE

ONE MORE CHORUS

BREAK

GUITAR 1

e---X-X--------------X-X--------------X-X--------------X-X--------------|
B---X-X----14--------X-X----12--------X-X----15--------X-X----14--------|
G---X-X--14--14------X-X--14--14------X-X--14--14------X-X--14--14------|
D---X-X--------14----X-X--------12----X-X--------14----X-X--------14----|
A---X-X----------12--X-X----------12--X-X----------12--X-X----------12--|
E---X-X--------------X-X--------------X-X--------------X-X--------------|

e---X-X--------------X-X--------------X-X--------------X-X----------------|
B---X-X----14--------X-X----12--------X-X----15--------X-X--14b15b14-12---|
G---X-X--14--14------X-X--14--14------X-X--14--14------X-X-------------14-|
D---X-X--------14----X-X--------12----X-X--------14----X-X----------------|
A---X-X----------12--X-X----------12--X-X----------12--X-X----------------|
E---X-X--------------X-X--------------X-X--------------X-X----------------|


GUITAR 2

e---5-5--------------2-2--------------5-5--------------5-5----------|
B---5-5--------------2-2--------------7-7--------------5-5----------|
G---6-6--------------2-2--------------7-7--------------6-6----------|
D---7-7--------------4-4--------------7-7--------------7-7----------|
A---7-7--------------4-4--------------5-5--------------7-7----------|
E---5-5--------------2-2-------------------------------5-5----------|

e---5-5--------------2-2--------------5-5--------------5-5----------|
B---5-5--------------2-2--------------7-7--------------5-5----------|
G---6-6--------------2-2--------------7-7--------------6-6----------|
D---7-7--------------4-4--------------7-7--------------7-7----------|
A---7-7--------------4-4--------------5-5--------------7-7----------|
E---5-5--------------2-2-------------------------------5-5----------|

OUTRO

GUITAR 1

REALLY SUPER FAST PICKING

     [   A    ]   [   Fm   ]   [   D   ]    [    A    ]
e----------------------------------------------------------------------|
B----14--12--10----12--10-9-----19-17-15----14--12--10-----------------|
G----------------------------------------------------------------------|
D----------------------------------------------------------------------|
A----------------------------------------------------------------------|
E----------------------------------------------------------------------|


     [   A    ]   [   Fm   ]   [   D   ]      [    A    ]
e------------------------------------------------------------------------|
B----14--12--10----12--10--9-----19-17-15-----14b15b14-12--10------------|
G------------------------------------------------------------------------|
D------------------------------------------------------------------------|
A------------------------------------------------------------------------|
E------------------------------------------------------------------------|

GUITAR 2

         A                Fm               D                A

e---5-5-5-5-5-5-5-5--2-2-2-2-2-2-2-2--5-5-5-5-5-5-5-5--5-5-5-5-5-5-5-5-|
B---5-5-5-5-5-5-5-5--2-2-2-2-2-2-2-2--7-7-7-7-7-7-7-7--5-5-5-5-5-5-5-5-|
G---6-6-6-6-6-6-6-6--2-2-2-2-2-2-2-2--7-7-7-7-7-7-7-7--6-6-6-6-6-6-6-6-|
D---7-7-7-7-7-7-7-7--4-4-4-4-4-4-4-4--7-7-7-7-7-7-7-7--7-7-7-7-7-7-7-7-|
A---7-7-7-7-7-7-7-7--4-4-4-4-4-4-4-4--5-5-5-5-5-5-5-5--7-7-7-7-7-7-7-7-|
E---5-5-5-5-5-5-5-5--2-2-2-2-2-2-2-2--5-5-5-5-5-5-5-5--5-5-5-5-5-5-5-5-|


e---5-5-5-5-5-5-5-5--2-2-2-2-2-2-2-2--5-5-5-5-5-5-5-5--5-5-5-5-5-5-5-5-|
B---5-5-5-5-5-5-5-5--2-2-2-2-2-2-2-2--7-7-7-7-7-7-7-7--5-5-5-5-5-5-5-5-|
G---6-6-6-6-6-6-6-6--2-2-2-2-2-2-2-2--7-7-7-7-7-7-7-7--6-6-6-6-6-6-6-6-|
D---7-7-7-7-7-7-7-7--4-4-4-4-4-4-4-4--7-7-7-7-7-7-7-7--7-7-7-7-7-7-7-7-|
A---7-7-7-7-7-7-7-7--4-4-4-4-4-4-4-4--5-5-5-5-5-5-5-5--7-7-7-7-7-7-7-7-|
E---5-5-5-5-5-5-5-5--2-2-2-2-2-2-2-2--5-5-5-5-5-5-5-5--5-5-5-5-5-5-5-5-|

INTRO  X2
VERSE  X4
CHORUS X2
SOLO   X1
VERSE  X4
CHORUS X2
BREAK  X1
OUTRO  X1

WWW.THEALPHABEAT.COM
Добавлено: 18.07.2012
Другие материалы по этой песне:
  • Аккорды и текст

Страница создана 18.07.2012
http://primanota.ru/alphabeat/cold-shoulder-chords.htm
Привет, Гость.
Предлагаем пройти революционный курс по гитаре.
Подарок от PrimaNota.Ru, забирай!