PrimaNota.ru - самый крупный в мире бесплатный архив песенных текстов, аккордов, табулатур и нот


Almighty - Praying To The Red Light - таба, видео

Регистрация Запомнить меня
Войти через:  Facebook Google Twitter Vk Yandex Mail.ru

Almighty - Praying To The Red Light - таба, видео

Печатать
Просмотров: 100
Уроки эстрадного вокала в Санкт-Петербурге
The Almighty
Praying To The Red Light
>From Soul Destruction

Can I just say, I've never seen any almighty tab on the internet
anywhere, so I could be the first to submit some.  This is just the intro
riff which I worked out by ear.  Reliable, eh?  Well its probably wrong,
but its still a very good riff to play none-the-less.
Listen to the song for help.

(Tune down a semitone/1/2 a step)
Intro riff;
eb-----------------------------------------------|
Bb-------7b^(8)r-7---5---7-----------------------|
Gb-------7b^(8)r-7---5---7---7-p-5-7b^r7p-5------|
Db--------------------------------------------7--|
Ab-(0)-------------------------------------------|
Eb-----------------------------------------------|


eb-----------------------------------------------|
Bb-----------------------------------------------|
Gb--------------------------5--------------------|
Db---------------------2h5-----7----7p5s7--------|
Ab-(0)--3p0--5p0--6p0----------------------------|
Eb-----------------------------------------------|

Use a nice distortion
That's all I've got.  Sorry.  If I can work out any of the rest ill post
that.

Transcribed by SanmaN,
18-1-03
     
Добавлено: 22.06.2013
Вам также может быть интересно:
Другие материалы по этой песне:
  • Аккорды и текст

Страница создана 22.06.2013
http://primanota.ru/almighty/praying-to-the-red-light-chords.htm
Привет, Гость.
Предлагаем пройти революционный курс по гитаре.
Подарок от PrimaNota.Ru, забирай!