PrimaNota.ru - самый крупный в мире бесплатный архив песенных текстов, аккордов, табулатур и нот


Almafuerte - Tangolpeando - таба, видео

Регистрация Запомнить меня
Войти через:  Facebook Google Twitter Vk Yandex Mail.ru

Almafuerte - Tangolpeando - таба, видео

Печатать
Просмотров: 140
Titulo: Tangolpeando
Album: A fondo blanco (1999)
INTRO:
e-|-----|-----------------------|----------------------|-
B-|-----|-----------------------|----------------------|-
G-|-1/5-|-----------------1-----|-1--------------------|-
D-|-2/7-|-------0--2h3p2----3-2-|---2-3-0--0h2p0-------|-
A-|-2/7-|-0-2-3-----------------|----------------3-2---|-
E-|-0/5-|-----------------------|--------------------0-|-
                                                                              
e-|---------------------------|---------------|-
B-|---------------------------|---------------|-
G-|-2-4-5-7---9/10\9--13-10-9-|---------------|-
D-|---------------------------|---------------|-
A-|-0-2-3-5---7/-8\7--11--8-7-|-5-3-2-0-------|-
E-|---------------------------|---------4-0-5-|-
                                                                              
          F  E  Am
e-|---------------|-
B-|-------1--0--1-|-
G-|-------2--1--2-|-
D-|-------3--2--2-|-
A-|---0-2-3--2--0-|-
E-|-4-------------|-
Am                        C/G 
Es por decirlo que a este canto doy mi voz
Am                   C/G
soy nacido en Buenos Aires
Am                    C
con tango robado a la imaginación 
G      E7            Am
o al recuerdo, no lo sé.
e-|-----------|-
B-|-1p0-------|-
G-|-----2-1-2-|-
D-|-----------|-
A-|-----------|-
E-|-----------|-
G                      C
y aunque burles este intento
G                 C
que pretende demostrarte
B7                    E7
Que no soy yo quién olvidará 
     Dm            C
el pasado y a esos hombres que 
         E7            Am
han dado a parir identidad.
          F  E  Am
e-|---------------|-
B-|-------1--0--1-|-
G-|-------2--1--2-|-
D-|-------3--2--2-|-
A-|---0-2-3--2--0-|-
E-|-4-------------|-

Sopladores y compinches
soñadores de la fiesta
nocheros de mercadería 
que hoy se abanican por doquier

y aunque falta poco tiempo
para que el siglo se muera
supermercados plastificados 
no me dan fiado; porque de la baja soy

me desnudo en este espiche
sin máscaras ni caretas
no curro y me escurro de que algún turro habrá
que me busqué de revés

soy maldito porque siento
como pocos hay que sientan
de mis entripados me voy liberando, 
cantadoni hoy por hoy historiando, 
en camino al más allá. 
Final:
          F  E  Am6
e-|-------------2-|-
B-|-------1--0--1-|-
G-|-------2--1--2-|-
D-|-------3--2--2-|-
A-|---0-2-3--2--0-|-
E-|-4-------------|-
Добавлено: 29.06.2012
Другие материалы по этой песне:
  • Аккорды и текст

Страница создана 29.06.2012
http://primanota.ru/almafuerte/tangolpeando-chords.htm
Привет, Гость.
Предлагаем пройти революционный курс по гитаре.
Подарок от PrimaNota.Ru, забирай!