PrimaNota.ru - самый крупный в мире бесплатный архив песенных текстов, аккордов, табулатур и нот


Almafuerte - Convide Rutero - текст песни, таба, видео

Регистрация Запомнить меня
Войти через:  Facebook Google Twitter Vk Yandex Mail.ru

Almafuerte - Convide Rutero - текст песни, таба, видео

Печатать
Просмотров: 121
ALMAFUERTE - CONVIDE RUTERO

INTRO:
  F#m   E  A                        F#m E          F#m E  A
-2-2-2--0--0-------------------------2--0--        -2--0--0--------0--|
-2-2-2--0--2-----------3-2-0---------2--0--        -2--0--2----0------|
-2-2-2--1--2---------------------2-4-2--1--  X2    -2--1--2--2---2----|
-4-4-4--2--2-----------------2-4--------2--        -4--2--2-----------|
-4-4-4--2--0--0-2-4-0-------------------2--        -4--2--0-----------|
-2-2-2--0--0----------------------------0--        -2--0--0-----------|

F#m        E            D     Bm
Escucho a las rutas llamarme
F#m         E              D        (riff1)      (riff1):
son voces graves que me invitan a rodar,         -3/5-4-2-4-2-0------|
Bm        G         F#m       E                  --------------------|
dicen extrañar mi errante andar                  --------------------|
         D   Bm         E                        --------------------|
pedal a fondo, tierra adentro.                   --------------------|
                                                 --------------------|

F#m       E           D    Bm
Sueños invaden mi descanso
F#m     E        D
con su carga de convide rutero,
Bm      G              F#m           E
atravesar los amplios llanos por llegar
      D       Bm               E
a ningún lugar, como hace el viento.


Quieren volverme  a ver                 ] (Como intro)
es por eso que están llamándome.        ]

-----2-4-5-4-2-0--------------------------------|
-3-3-------------2-2---2------------------------|
-------------------2-4---4--2-----------4-6-4---|
------------------------------4-2-4-4/7-------4-|
------------------------------------------------|
------------------------------------------------|

------------9----12-9---------9-------|
----9-10-12---10------10----9---10-12-|
-11----------------------11-----------|
--------------------------------------|
--------------------------------------|
--------------------------------------|


F#m   F#m/E   D   C#m   Bm   A   Bm  C#m7


F#m        E             D        Bm
Sin rumbo fijo hacia adelante voy,
F#m      E             D          (riff1)
andar andando, solo andando por andar,
Bm         G        F#m           E
llevar mi vida acelerando sin pensar
    D     Bm          E
en regresar o en detenerme.


F#m        E            D    Bm
Escucho a las rutas llamarme
F#m     E            D
y su motivo viste a mi decir sincero,
Bm          G        F#m              E
el que afirmado será por quienes por ahí
       D       Bm         E
me vieron pasar, o por aquellos


Que andando me han de ver       ] (Como intro)
si consigo llenar el tanque     ]

                          responderé al llamado...
-----2-4-5-4-2-0-----------|
-3-3-------------2-2---2---|
-------------------2-4---4-|
---------------------------|
---------------------------|
---------------------------|
                                    si lo quiere mi suerte...
------------9----12-9---------9-------------------18-19-19/21/19-|
----9-10-12---10------10----9---10-12----------------------------|
-11----------------------11--------------------------------------|
-----------------------------------------------------------------|
-----------------------------------------------------------------|
-----------------------------------------------------------------|
                          como otras veces antes...
-----2-4-5-4-2-0-----------|
-3-3-------------2-2---2---|
-------------------2-4---4-|
---------------------------|
---------------------------|
---------------------------|
                                    siendo quien siente...
------------9----12-9---------9-------|
----9-10-12---10------10----9---10-12-|
-11----------------------11-----------|
--------------------------------------|
--------------------------------------|
--------------------------------------|

F#m   F#m/E   D   C#m   Bm   A   Bm   C#m7   F#m
                                        Partire...

FIN.

Saludos Pibe Candelmo! Ouououou
Добавлено: 19.11.2013
Другие материалы по этой песне:

Страница создана 31.05.2012
http://primanota.ru/almafuerte/convide-rutero-chords.htm
Привет, Гость.
Предлагаем пройти революционный курс по гитаре.
Подарок от PrimaNota.Ru, забирай!