PrimaNota.ru - самый крупный в мире бесплатный архив песенных текстов, аккордов, табулатур и нот


Allman Brothers - Every Hungry Women - таба, видео

Регистрация Запомнить меня
Войти через:  Facebook Google Twitter Vk Yandex Mail.ru

Allman Brothers - Every Hungry Women - таба, видео

Печатать
Просмотров: 104
This is the song "Every Hungry Women" by the Allman Brothers
as performed on the album "Beginnings". There are not a lot of good 
Allman brothers tabs so I thought I would try and contribute
Please send your thoughts to me Sean Sheaf sss3940@garnet.acns.fsu.edu


   Duane starting intro w/slide      
E|----------------------------------------------------------------
B|---7/9--9--9----7---5---3-----3/5--3/5\0------------------------
G|---7/9--9--9----7---4---2-----2/4--2/4\1------------------------ X2
D|----------------------------------------------------------------
A|----------------------------------------------------------------
E|----------------------------------------------------------------
  
  Guitar 1  
E|----------------------------------------------------------------
B|-------3--3h5-3h5-3h5--------3--3h5--3--------------------------
G|--2/4-------------------2/4-------------2r0---------------------
D|----------------------------------------------------------------
A|----------------------------------------------------------------
E|----------------------------------------------------------------

    Guitar 2  
E|---------10--10h12-10h12-10h12----------10--10h12--10-----------
B|--10/12--------------------------10/12------------------10r8----
G|----------------------------------------------------------------
D|----------------------------------------------------------------
A|----------------------------------------------------------------
E|----------------------------------------------------------------

Both guitars pretty much play the same thing but one is in a 
different octave giving a very neat sound.

 
   Guitar 1    Here is the beginning verse riff
E|-----------------------------------------------------------------
B|------x--8--------x--10--8---------x--8--------------------------
G|------x--7--------x--7---7---------x--7--------------------------
D|--7h9----9----7h9----9---------7h9----9----7b9-------------------
A|------------------------------------------------10--7------------
E|-----------------------------------------------------------------

    Guitar2 
E|-----------------------------------------------------------------
B|-----------------------------------------------------------------
G|---------12---------14-12-----------12--14b16r12----------------------
D|---12h14-----12h14----------12h14----------------14------------------
A|-----------------------------------------------------------------
E|-----------------------------------------------------------------

Guitar one and two play this basic chord over the verse

E|--------       ---3---
B|--8-----       ---3---
G|--7-----   or  -------
D|--9-----       -------
A|--------       -------
E|--------       -------

 "thirteen lovely children...." 
E|---5------
B|---5------
G|---6------
D|---7------
A|---7------
E|---5------

"but every hungry woman..." 
E|---7-----3----2-----
B|---7-----3----2-----
G|---8-----4----3-----
D|---9-----5----4-----
A|---9-----5----4-----
E|---7-----3----2-----

(Follow this with the beginning verse riff)

Just switch off trading solo's over E then do this cool riff 
in harmony with each other. I think Duane is guitar 1 and dicky
is 2

   Guitar 1
E|-------------------10-12r10-10-12---------15-17-b17r15-17--15----
B|------8-10--10/12-------------------15-17---------------------17-
G|-7-9-------------------------------------------------------------
D|-----------------------------------------------------------------  X2
A|-----------------------------------------------------------------
E|----------------------------------------------------------------- 
 
   Guitar 2 
E|---------------5-7r5-5-7---5-7-10-12-b12r10-12-10----------------
B|-------3-5-5/7-------------------------------------12------------
G|--2-4------------------------------------------------------------ X2
D|-----------------------------------------------------------------
A|-----------------------------------------------------------------
E|-----------------------------------------------------------------

   Guitar 1
E|-15(16)r12-10-12-10-12p10-------------15(17)r12-10-12----10h12-12-
B|--------------------------12pr10--b8--------------------12---------
G|------------------------------------9-----------------------------
D|------------------------------------------------------------------
A|------------------------------------------------------------------
E|------------------------------------------------------------------

   Guitar 2
E|-12(13)r10----10-----------------------12(13)r10-----10----10h12-12-
B|-----------12----12--15p12-12p10-7b8--------------12----12----------
G|--------------------------------------9---------------------------
D|-----------------------------------------------------------------  X2
A|-----------------------------------------------------------------
E|-----------------------------------------------------------------
    
    Guitar 1                (yeah, you got fifteen lovely children...)
E|--12p10--------------------------------------------------------------
B|--------12p10--10-8------------------2-------------------------------
G|---------------------9-7-------------2-------------------------------
D|--------------------------9-7--7-5---2-------------------------------
A|-------------------------------------0-------------------------------
E|---------------------------------------------------------------------

    Guitar 2                    
E|---7p5-------------------------5------------------------------------
B|-------8p5--3------------------5------------------------------------
G|--------------4--2-0-----------6------------------------------------
D|----------------------2-0------7------------------------------------
A|--------------------------2-0--7------------------------------------
E|-------------------------------5------------------------------------

Now Back to the verse just repeat the beginning 


This tab is my own work
E-mail me with your thougts at sss3940@garnet.acns.fsu.edu

     
Добавлено: 11.08.2013
Другие материалы по этой песне:
  • Аккорды и текст

Страница создана 09.08.2013
http://primanota.ru/allman-brothers/every-hungry-women-chords.htm
Привет, Гость.
Предлагаем пройти революционный курс по гитаре.
Подарок от PrimaNota.Ru, забирай!