PrimaNota.ru - самый крупный в мире бесплатный архив песенных текстов, аккордов, табулатур и нот


Allison - Perdido - таба, видео

Регистрация Запомнить меня
Войти через:  Facebook Google Twitter Vk Yandex Mail.ru

Allison - Perdido - таба, видео

Печатать
Просмотров: 84
intro
    gitarra 1 y 2 
 Eb|-------------|
 Bb|-------------|
 Gb|-6-----------|
 Db|-6--6--8--6--|
 Ab|-4--6--8--6--|
 Eb|----4--6--4--|x2
                 

verso
   guitarra 1
 Eb|---------------------------------------------------------|
 Bb|---------------------------------------------------------|
 Gb|---------------------------------------------------------|
 Db|-4---6---8---8--6666666666-------------------------------|
 Ab|-4---6---8---8--4444444444-666666666-888888888-6666666666|
 Eb|-2---4---6---4-------------444444444-666666666-4444444444|
                    .......................................PM

    guitarra 2                        |<           x2             >|
 Eb|-----------------------------------------------8---------------|
 Bb|----------------------------------------------8-8--------------|
 Gb|----------------------------------666666-55-66----66666666-55--|
 Db|---------------------------------------------------------------|
 Ab|-4-4-44-4-4-6-6-66-6-6-8-8-88-8-8------------------------------|
 Eb|-2-2-22-2-2-4-4-44-4-4-6-6-66-6-6------------------------------|

coro 
   guitarra 1
 Eb|--------------------------------------|
 Bb|--------------------------------------|
 Gb|-66666666-----------------------------|
 Db|-66666666-66666666-44444444-8888-6666-|
 Ab|-44444444-66666666-44444444-8888-6666-|
 Eb|----------44444444-22222222-6666-4444-|

   guitarra 2
 Eb|--------------------------------------|
 Bb|--------------------------------------|
 Gb|-6-666666-6-666666-6-6666666666666666-|
 Db|-x-xxxxxx-x-xxxxxx-x-xxxxxxxxxxxxxxxx-|
 Ab|-4-444444-4-444444-4-4444444444444444-|
 Eb|--------------------------------------|

   guitarra 1 y 2 
 Eb|--------------|---------------------------------|
 Bb|--------------|---------------------------------|
 Gb|--------------|---------------------------------|
 Db|-4444-888-666-|-6666666666666666----------------|
 Ab|-4444-888-666-|-44444444444444446666666666666666|
 Eb|-2222-666-444-|-----------------4444444444444444|
                  x2..............................PM

post-coro
   guitarra 1
 Eb|----------------------------|
 Bb|----------------------------|
 Gb|----------------------------|
 Db|-666666666666---------------|
 Ab|-444444444444-888888-666666-|
 Eb|--------------666666-444444-|

   guitarra 2 
 Eb|---------------------|
 Bb|---------------------|
 Gb|-66-6-66-6-66-6-66-6-|
 Db|-66-4-66-4-66-4-66-4-|
 Ab|-44-4-44-4-44-4-44-4-|
 Eb|---------------------|

verso
   guitarra 2
 Eb|--------------8-----------|
 Bb|-------------8-8----------|
 Gb|-666666-55-66----66666666-|
 Db|--------------------------|
 Ab|--------------------------|
 Eb|--------------------------|x2

   guitarra 1
 Eb|-----------------------------------------------------------------|
 Bb|-----------------------------------------------------------------|
 Gb|-----------------------------------------------------------------|
 Db|-----------------------------------------------------------------|
 Ab|-4444444444444444666666666666666688888888888888886666666666666666|
 Eb|-2222222222222222444444444444444466666666666666664444444444444444|
     ..............................................................PM

coro 
   guitarra 1
 Eb|--------------------------------------|
 Bb|--------------------------------------|
 Gb|-66666666-----------------------------|
 Db|-66666666-66666666-44444444-8888-6666-|
 Ab|-44444444-66666666-44444444-8888-6666-|
 Eb|----------44444444-22222222-6666-4444-|

   guitarra 2
 Eb|--------------------------------------|
 Bb|--------------------------------------|
 Gb|-6-666666-6-666666-6-6666666666666666-|
 Db|-x-xxxxxx-x-xxxxxx-x-xxxxxxxxxxxxxxxx-|
 Ab|-4-444444-4-444444-4-4444444444444444-|
 Eb|--------------------------------------|

   guitarra 1 y 2 
 Eb|--------------|---------------------------------|
 Bb|--------------|---------------------------------|
 Gb|--------------|---------------------------------|
 Db|-4444-888-666-|-6666666666666666----------------|
 Ab|-4444-888-666-|-44444444444444446666666666666666|
 Eb|-2222-666-444-|-----------------4444444444444444|
                  x2..............................PM

intermedio
   guitarra 1 
 Eb|------------------------------|
 Bb|-------99999999------99999999-|
 Gb|-5/6666--------5/6666---------|
 Db|------------------------------|
 Ab|------------------------------|
 Eb|------------------------------|x2

   guitarra 2
 Eb|-------------------------|
 Bb|-------------------------|
 Gb|-66-66-------------------|
 Db|-66-66-44-44-88-88-66-66-|
 Ab|-44-44-44-44-88-88-66-66-|
 Eb|-------22-22-66-66-44-44-|x2

post-coro 2
   guitarra 1 y 2en PM
 Eb|----------------------------------|
 Bb|----------------------------------|
 Gb|----------------------------------|
 Db|----------------------------------|
 Ab|-44444444444444446666666666666666-|
 Eb|-22222222222222224444444444444444-|x2

   guitarra 1 y 2
 Eb|----------------------|
 Bb|----------------------|
 Gb|-66-66----------------|
 Db|-66-6644-4433-3344-44-|
 Ab|-44-4444-4433-3344-44-|
 Eb|------22-2211-1122-22-|x2


coro 
   guitarra 1
 Eb|--------------------------------------|
 Bb|--------------------------------------|
 Gb|-66666666-----------------------------|
 Db|-66666666-66666666-44444444-8888-6666-|
 Ab|-44444444-66666666-44444444-8888-6666-|
 Eb|----------44444444-22222222-6666-4444-|

   guitarra 2
 Eb|--------------------------------------|
 Bb|--------------------------------------|
 Gb|-6-666666-6-666666-6-6666666666666666-|
 Db|-x-xxxxxx-x-xxxxxx-x-xxxxxxxxxxxxxxxx-|
 Ab|-4-444444-4-444444-4-4444444444444444-|
 Eb|--------------------------------------|

   guitarra 1 y 2 
 Eb|--------------|---------------------------------|
 Bb|--------------|---------------------------------|
 Gb|--------------|---------------------------------|
 Db|-4444-888-666-|-6666666666666666----------------|
 Ab|-4444-888-666-|-44444444444444446666666666666666|
 Eb|-2222-666-444-|-----------------4444444444444444|
                  x2..............................PM

Добавлено: 29.08.2013
Другие материалы по этой песне:
  • Аккорды и текст

Страница создана 29.08.2013
http://primanota.ru/allison/perdido-chords.htm
Привет, Гость.
Предлагаем пройти революционный курс по гитаре.
Подарок от PrimaNota.Ru, забирай!