PrimaNota.ru - самый крупный в мире бесплатный архив песенных текстов, аккордов, табулатур и нот


Allison - No Mes De Ti - таба, видео

Регистрация Запомнить меня
Войти через:  Facebook Google Twitter Vk Yandex Mail.ru

Allison - No Mes De Ti - таба, видео

Печатать
Просмотров: 95
Guitarra 1
00:00
e|--------------------------------------------------------------------|
B|--------7-----7-6-------7-----7-6-------7-----7-6-------7-----7-6---|
G|------6---6-------6---6---6-------6---6---6-------6---6---6-------6-|
D|----4-------4-------4-------4-------4-------4-------4-------4-------|x4
A|--------------------------------------------------------------------|
E|--------------------------------------------------------------------|

Guitarra 2
00:16
e|--------------------------------------------------------------------|
B|--------------------------------------------------------------------|
G|--------------------------------------------------------------------|
D|------------------------------------4-4-4-4-4-4-4-4-4-4-4-4-4-4-4-4-|x2
A|----4-4-4-4-4-4-4-4-4-4-4-4-4-4-4-4-2-2-2-2-2-2-2-2-2-2-2-2-2-2-2-2-|
E|----2-2-2-2-2-2-2-2-2-2-2-2-2-2-2-2---------------------------------|
      . . . . . . . . . . . . . . . . . . . . . . . . . . . . . . . .PM

Guitarra 1 y 2
00:32
e|-------------------------------------------------|
B|-------------------------------------------------|
G|-------------------------------------------------|
D|-----------------4-4-4-4-4-4-4-4-----------------|
A|-4-4-4-4-4-4-4-4-2-2-2-2-2-2-2-2-4-4-4-4-4-4-4-4-|
E|-2-2-2-2-2-2-2-2-----------------2-2-2-2-2-2-2-2-|
 PM. . . . . . . . . . . . . . . . . . . . . . . .

Guitarra 1 y 2
00:32
e|-------------------------------------------------|
B|-------------------------------------------------|
G|-------------------------------------------------|
D|-8-8-8-8-8-8-8-8-----------------4-4-4-4-4-4-4-4-|
A|-6-6-6-6-6-6-6-6-6-6-6-6-6-6-6-6-2-2-2-2-2-2-2-2-|
E|-----------------4-4-4-4-4-4-4-4-----------------|
 PM. . . . . . . . . . . . . . . . . . . .

Guitarra 1 y 2 coro
00:44
e|--------------------------------|
B|--------------------------------|
G|--------------------------------|
D|-----------------4-4-4-4-4-4-4-4|x4
A|-4-4-4-4-4-4-4-4-2-2-2-2-2-2-2-2|
E|-2-2-2-2-2-2-2-2----------------|

en la tercera se esto
e|-----9--|x3
B|-6/7----|
G|--------|
D|--------|
A|--------|
E|--------|


Guitarra 1
00:59
e|----------------------------------|
B|--------7-----7-6-------7-----7-6-|
G|------6---6-------6---6---6-------|
D|----4-------4-------4-------4-----|
A|----------------------------------|
E|----------------------------------|

Guitarra 1
01:03
e|--------------------------------------------------------------------|
B|--------7-----7-6-------7-----7-6-------7-----7-6-------7-----7-6---|
G|------6---6-------6---6---6-------6---6---6-------6---6---6-------6-|
D|----4-------4-------4-------4-------4-------4-------4-------4-------|x2
A|--------------------------------------------------------------------|
E|--------------------------------------------------------------------|

Guitarra 2
01:03
e|--------------------------------------------------------------------|
B|--------------------------------------------------------------------|
G|--------------------------------------------------------------------|
D|------------------------------------4-4-4-4-4-4-4-4-4-4-4-4-4-4-4-4-|x2
A|----4-4-4-4-4-4-4-4-4-4-4-4-4-4-4-4-2-2-2-2-2-2-2-2-2-2-2-2-2-2-2-2-|
E|----2-2-2-2-2-2-2-2-2-2-2-2-2-2-2-2---------------------------------|
      . . . . . . . . . . . . . . . . . . . . . . . . . . . . .      PM

Guitarra 1 y 2
01:19
e|-------------------------------------------------|
B|-------------------------------------------------|
G|-------------------------------------------------|
D|-----------------4-4-4-4-4-4-4-4-----------------|
A|-4-4-4-4-4-4-4-4-2-2-2-2-2-2-2-2-4-4-4-4-4-4-4-4-|
E|-2-2-2-2-2-2-2-2-----------------2-2-2-2-2-2-2-2-|
 PM. . . . . . . . . . . . . . . . . . . . . . . .

Guitarra 1 y 2
01:19
e|-------------------------------------------------|
B|-------------------------------------------------|
G|-------------------------------------------------|
D|-8-8-8-8-8-8-8-8-----------------4-4-4-4-4-4-4-4-|
A|-6-6-6-6-6-6-6-6-6-6-6-6-6-6-6-6-2-2-2-2-2-2-2-2-|
E|-----------------4-4-4-4-4-4-4-4-----------------|
 PM. . . . . . . . . . . . . . . . . . . .

Guitarra 1 y 2 coro
01:30
e|--------------------------------|
B|--------------------------------|
G|--------------------------------|
D|-----------------4-4-4-4-4-4-4-4|x4
A|-4-4-4-4-4-4-4-4-2-2-2-2-2-2-2-2|
E|-2-2-2-2-2-2-2-2----------------|


Guitarra 1 y 2 
01:47
e|-------------------------------|
B|-------------------------------|
G|-3-3-4-4-8-8-------------------|
D|-3-3-4-4-8-8-3-3-3-4-4-4-------|x3
A|-1-1-2-2-6-6-3-3-3-4-4-4-------|
E|-------------1-1-1-2-2-2-------|

e|-------------------------------|
B|-------------------------------|
G|-3-3-4-4-6-6---11111111--------|
D|-3-3-4-4-6-6---11111111--------|
A|-1-1-2-2-4-4---9-9-9-9---------|
E|-------------------------------|

y el coro otra vez
Добавлено: 02.06.2013
Другие материалы по этой песне:

Страница создана 02.06.2013
http://primanota.ru/allison/no-mes-de-ti-chords.htm
Привет, Гость.
Предлагаем пройти революционный курс по гитаре.
Подарок от PrimaNota.Ru, забирай!