PrimaNota.ru - самый крупный в мире бесплатный архив песенных текстов, аккордов, табулатур и нот


Allison - Mario Bros 3 - таба, видео

Регистрация Запомнить меня
Войти через:  Facebook Google Twitter Vk Yandex Mail.ru

Allison - Mario Bros 3 - таба, видео

Печатать
Просмотров: 82
Уроки эстрадного вокала в Санкт-Петербурге
jajaja aqi les dejo esta rola jajaj


TqMm rubi .... Mucho muchoO


E|-----------------------------------|
B|-----------------------------------|
G|------8-8-6-6-5-5------------------|
D|--6-6------------------------------|
A|-----------------------------------|
E|-----------------------------------|dos veces

E|-----------------------------------|
B|-----------------------------------|
G|-----------------------------------|
D|------8-8-6-6-5-5-6-6-6-6-5--------|
A|--6-6------------------------------|
E|-----------------------------------|


 G#                     Fm
Hoy es un buen día para irme a la escuela,
   C#                        D#/Eb
sentarme junto a Nancy y enseñarle mi lonchera nueva
G#                          Fm
Ya van varias veces que nos dice la maestra
    C#                 D#/Eb
que no nos agarremos debajo de la mesa.


     C#        D#/Eb       G#      Fm
Ya viene el verano y no podré escuchar
  C#        D#/Eb         G#    Fm
a Nancy cantando el himno nacional
    C#         D#/Eb        Cm    Fm   C#
tendré que esperar el nuevo ciclo escolar
        D#/Eb       G#
Para probar su mazapán

E|-----------------------------------|
B|-----------------------------------|
G|------8-8-6-6-5-5------------------|
D|--6-6------------------------------|
A|-----------------------------------|
E|-----------------------------------|dos veces

E|-----------------------------------|
B|-----------------------------------|
G|-----------------------------------|
D|------8-8-6-6-5-5-6-6-6-6-5--------|
A|--6-6------------------------------|
E|-----------------------------------|

   G#                          Fm
Su padre es el gerente de una gran juguetería
    C#                       D#/Eb
siempre le dá dinero y deja decir grocerías
   G#                         Fm
Mi padre es un taxista que trabaja todo el día
   C#                        D#/Eb
se robo esta lonchera de una banca en galerías.

C#        D#/Eb         G#   Fm
Gracias a él he podido descubrir
    C#     D#/Eb     G#   Fm
el significado de reproducir
  C#      D#/Eb          Cm       D#/Eb   C#
A ella le gustan las Barbies y a mí el futbol
           D#/Eb        G#
pero al doctor es lo mejor

           C#
Y cuando será
                G#
septiembre otra vez
            C#      Fm
para que me diga la Nancy
   C#       D#/Eb      G#
juguemos al Mario Bros 3.
Добавлено: 13.11.2013
Другие материалы по этой песне:
  • Аккорды и текст

Страница создана 26.09.2013
http://primanota.ru/allison/mario-bros-3-chords.htm
Привет, Гость.
Предлагаем пройти революционный курс по гитаре.
Подарок от PrimaNota.Ru, забирай!