PrimaNota.ru - самый крупный в мире бесплатный архив песенных текстов, аккордов, табулатур и нот


Allison - Llama Por Favor - таба, бас-таба, видео

Регистрация Запомнить меня
Войти через:  Facebook Google Twitter Vk Yandex Mail.ru

Allison - Llama Por Favor - таба, бас-таба, видео

Печатать
Просмотров: 103
Intro
Guitarra 1
00:01
e|-----------------------------------------------------|
B|-----------------------------------------------------|
G|-6655665566556651111101011111010111110101111108xx8---|
D|-6666666666666661111111111111111111111111111118xx8---|
A|-4444444444444449-9-9-9-9-9-9-9-9-9-9-9-9-9-9-6xx6---|
E|-----------------------------------------------------|

e|-----------------------------------------------------|
B|-----------------------------------------------------|
G|-886688668866886-10-101010-8-88----------------------|
D|-888888888888888-10-101010-8-88----------------------|
A|-666666666666666-8--8-8-8--6-66----------------------|
E|-----------------------------------------------------|

Guitarra 2
00:01
e|-----------------------------------------------------|
B|-----------------------------------------------------|
G|-666666666666666-------------------------------------|
D|-6666666666666664444444444444448x--8~--66666-6-6-----|
A|-4444444444444444444444444444448x--8~--66666-6-6-----|
E|----------------2222222222222226x--6~--44444-4-4-----|
                                           ...PM
vERso
Guitarra 1
00:22      00:33
e|---------|---|
B|---------|---|
G|-65-65-6-|---|
D|--6--6---|---|
A|---------|-/4|
E|---------|---|

Guitarra 2
00:12
e|-----------------------------------------------------------------|
B|-----------------------------------------------------------------|
G|-6-6-6-6-6-6-6-6-------------------------------------------------|
D|-6-6-6-6-6-6-6-6-4-4-4-4-4-4-4-4-8-8-8-8-8-8-8-8-6-6-6-6-6-6-6-6-|
A|-4-4-4-4-4-4-4-4-4-4-4-4-4-4-4-4-8-8-8-8-8-8-8-8-6-6-6-6-6-6-6-6-|
E|-----------------2-2-2-2-2-2-2-2-6-6-6-6-6-6-6-6-4-4-4-4-4-4-4-4-|x2

00:34
e|------------|
B|------------|
G|------------|
D|-4~--xx6~-x-|
A|-4~--xx6~-x-|
E|-2~--xx4~-x-|

Coro
Guitarra 1
00:40
e|-----------------------------------------------|
B|-----------------------------------------------|
G|-666666666666666111111111111111111111111111111-|
D|-666666666666666111111111111111111111111111111-|
A|-4444444444444449-9-9-9-9-9-9-9-9-9-9-9-9-9-9--|
E|-----------------------------------------------|
                                                 |
e|-----------------------------------------------|
B|-----------------------------------------------|
G|-8888888888888881010101010101010888888---------|
D|-8888888888888881010101010101010888888---------|
A|-6666666666666668-8-8-8-8-8-8-8-666666---------|
E|-----------------------------------------------|x2

Guitarra 2
00:40
e|-------------------------------------------------------------|
B|-------------------------------------------------------------|
G|-666666666666666---------------------------------------------|
D|-666666666666666444444444444444888888888888888666666666666666|
A|-444444444444444444444444444444888888888888888666666666666666|
E|----------------222222222222222666666666666666444444444444444|x2

Post-coro
Guitarra 1
01:02
e|--------------------------------------------------------|
B|--------------------------------------------------------|
G|-6688101066881010661066881010668810106610-10101010108-6-|
D|-xxxxx-x-xxxxx-x-xxx-xxxxx-x-xxxxx-x-xxx--x-x-x-x-x-x-x-|
A|-44668-8-44668-8-448-44668-8-44668-8-448--8-8-8-8-8-6-4-|
E|--------------------------------------------------------|

Guitarra 2
01:02
e|-------------------------------------------------------------|
B|-------------------------------------------------------------|
G|-------------------------------------------------------------|
D|-666666666666666---------------------------------------------|
A|-44444444444444444444444444444488888888888888866666666666x6x6|
E|----------------22222222222222266666666666666644444444444x4x4|

Verso
Guitarra 1
01:23
e|---|
B|---|
G|---|
D|---|
A|-/4|
E|---|

Guitarra 2
01:13
e|-----------------------------------------------------------------|
B|-----------------------------------------------------------------|
G|-6-6-6-6-6-6-6-6-------------------------------------------------|
D|-6-6-6-6-6-6-6-6-4-4-4-4-4-4-4-4-8-8-8-8-8-8-8-8-6-6-6-6-6-6-6-6-|
A|-4-4-4-4-4-4-4-4-4-4-4-4-4-4-4-4-8-8-8-8-8-8-8-8-6-6-6-6-6-6-6-6-|
E|-----------------2-2-2-2-2-2-2-2-6-6-6-6-6-6-6-6-4-4-4-4-4-4-4-4-|

01:24
e|------------|
B|------------|
G|------------|
D|-4~--xx6~-x-|
A|-4~--xx6~-x-|
E|-2~--xx4~-x-|

Coro
Guitarra 1
01:30
e|-----------------------------------------------|
B|-----------------------------------------------|
G|-666666666666666111111111111111111111111111111-|
D|-666666666666666111111111111111111111111111111-|
A|-4444444444444449-9-9-9-9-9-9-9-9-9-9-9-9-9-9--|
E|-----------------------------------------------|
                                                 |
e|-----------------------------------------------|
B|-----------------------------------------------|
G|-8888888888888881010101010101010888888---------|
D|-8888888888888881010101010101010888888---------|
A|-6666666666666668-8-8-8-8-8-8-8-666666---------|
E|-----------------------------------------------|x3

Guitarra 2
01:30
e|-------------------------------------------------------------|
B|-------------------------------------------------------------|
G|-666666666666666---------------------------------------------|
D|-666666666666666444444444444444888888888888888666666666666666|
A|-444444444444444444444444444444888888888888888666666666666666|
E|----------------222222222222222666666666666666444444444444444|x3

entre la vuelta 2 y 3 se oye muy leve esto:
01:51
e|---|
B|---|
G|---|
D|---|
A|-/4|
E|---|

Final
Guitarra 1
02:03
e|-----------------------------|
B|-----------------------------|
G|-----------6-5-6-8-6-5-6-8-6-|
D|---------------------------6-|
A|---------------------------4-|
E|-----------------------------|

Guitarra 2
02:03
e|-----------------------------|
B|-----------------------------|
G|-6-xxx6-xxx6---------------6-|
D|-6-xxx6-xxx6---------------6-|
A|-4-xxx4-xxx4---------------4-|
E|-----------------------------|
Добавлено: 03.08.2013
Другие материалы по этой песне:
  • Аккорды и текст

Страница создана 03.08.2013
http://primanota.ru/allison/llama-por-favor-chords.htm
Привет, Гость.
Предлагаем пройти революционный курс по гитаре.
Подарок от PrimaNota.Ru, забирай!