PrimaNota.ru - самый крупный в мире бесплатный архив песенных текстов, аккордов, табулатур и нот


Allison - Fragil - таба, бас-таба, видео

Регистрация Запомнить меня
Войти через:  Facebook Google Twitter Vk Yandex Mail.ru

Allison - Fragil - таба, бас-таба, видео

Печатать
Просмотров: 98
GUITARRA 1
E [-------------------------------------------------------------------------]
B [-------------------------------------------------------------------------]
G [-------------------------------------------------------------------------]
D [--------4--------------4---------------4-------------7---4---------------]
A [--5-5-5---5-5-5----------5---------------5-------------5---4/5-----------]
E [-----------------5-5-5-------5-5-3-3-3-----3-3-5-5-5---------------------]

GUITARRA 1 
E [-------------------------------------------------------------------------]
B [-------------------------------------------------------------------------]
G [-------------------------------------------------------------------------]
D [--------4--------------4---------------4-------------7---4---------------]
A [--5-5-5---5-5-5----------5---------------5-------------5---4/5-----------]
E [-----------------5-5-5-------5-5-3-3-3-----3-3-5-5-5---------------------]

GUITARRA 2
E [-------------------------------------------------------------------------]
B [-------------------------------------------------------------------------]
G [-------------------------------------------------------------------------]
D [--7--7---7---7---7---7---7---7---7---7---7---7---7---7---7---------------]
A [---5---5---5---5---5---5---5---5---5---5---5---5---5---5---5-------------]
E [-------------------------------------------------------------------------]

GUITARRA 1
E [-------------------------------------------------------------------------]
B [-------------------------------------------------------------------------]
G [-------------------------------------------------------------------------]
D [--------4--------------4---------------4-------------9-----9-7-----------]
A [--5-5-5---5-5-5----------5---------------5-----------9-----9-7-----------]
E [-----------------5-5-5-------5-5-3-3-3-----3-3-------7-----7-5-----------]

GUITARRA 2
E [-------------------------------------------------------------------------]
B [-------------------------------------------------------------------------]
G [-------------------------------------------------------------------------]
D [--7--7---7---7---7---7---7---7---7---7---7---7-------9-----9-7-----------]
A [---5---5---5---5---5---5---5---5---5---5---5---------9-----9-7-----------]
E [-----------------------------------------------------7-----7-5-----------]


GUITARRA 1
E [-------------------------------------------------------------------------]
B [-------------------------------------------------------------------------]
G [-------------------------------------------------------------------------]
D [-------------------------------------------------------------------------]
A [--5-4-5-4-5-4-5-4-5-7---5-4-5-4-5-4-5-4-5-7---7-10-9-7-10-9-7-10-9-------]
E [-------------------------------------------------------------------------]

GUITARRA 2
E [-------------------------------------------------------------------------]
B [-------------------------------------------------------------------------]
G [--7777777----------------------------------------------------------------]
D [--7777777--------7777777--------5555555------------999--7-777------------]
A [--5555555--------7777777--------5555555------------999--7-777------------]
E [-----------------5555555--------3333333------------777--5-555------------]


GUITARRA 1
E [-------------------------------------------------------------------------]
B [-------------------------------------------------------------------------]
G [-------------------------------------------------------------------------]
D [---------------------------------------------------9---9-7---------------]
A [--5-4-5-4-5-4-5-4-5-7---5-4-5-4-5-4-5-4-5-7--------9---9-7---------------]
E [---------------------------------------------------7---7-5---------------]

GUITARRA 2
E [-------------------------------------------------------------------------]
B [-------------------------------------------------------------------------]
G [--7777777----------------------------------------------------------------]
D [--7777777--------7777777--------5555555------------9---9-7---------------]
A [--5555555--------7777777--------5555555------------9---9-7---------------]
E [-----------------5555555--------3333333------------7---7-5---------------]

Me como las uñas todo por tu culpa
¿Acaso no sabes que mi alma es tuya?
Maldita la hora en que te vi a los ojos
Te veo y yo creo que todo es un sueño

    Uhhhhhhhhhhh Ohhhhhhhhh  Nooooo
GUITARRA 1 y 2
E [-------------------------------------------------------------------------]
B [-------------------------------------------------------------------------]
G [-------------------------------------------------------------------------]
D [--5---5---5---------7---7---7--------------------------------------------]
A [--5---5---5---------7---7---7--------------------------------------------]
E [--3---3---3---------5---5---5--------------------------------------------]

   Dime otra vez...     que me quieres y      que no te iras
GUITARRA 1 y 2
E [-------------------------------------------------------------------------]
B [-------------------------------------------------------------------------]
G [--77777-777--------------------------------------------------------------]
D [--77777-777------77777-777-------55555-555-----------999--7-777----------]
A [--55555-555------77777-777-------55555-555-----------999--7-777----------]
E [-----------------55555-555-------33333-333-----------777--5-555----------]

   Dime otra vez...     que eres mia y        de nadie más
GUITARRA 1 y 2
E [-------------------------------------------------------------------------]
B [-------------------------------------------------------------------------]
G [--77777-777--------------------------------------------------------------]
D [--77777-777------77777-777-------55555-555-----------999--7-777----------]
A [--55555-555------77777-777-------55555-555-----------999--7-777----------]
E [-----------------55555-555-------33333-333-----------777--5-555----------]

GUITARRA 1
E [-------------------------------------------------------------------------]
B [-------------------------------------------------------------------------]
G [-------------------------------------------------------------------------]
D [-------------------------------------------------------------------------]
A [--5-4-5-4-5-4-5-4-5-7---5-4-5-4-5-4-5-4-5-7---7-10-9-7-10-9-7-10-9-------]
E [-------------------------------------------------------------------------]

GUITARRA 2
E [-------------------------------------------------------------------------]
B [-------------------------------------------------------------------------]
G [--7777777----------------------------------------------------------------]
D [--7777777--------7777777--------5555555------------999--7-777------------]
A [--5555555--------7777777--------5555555------------999--7-777------------]
E [-----------------5555555--------3333333------------777--5-555------------]

GUITARRA 1
E [-------------------------------------------------------------------------]
B [-------------------------------------------------------------------------]
G [-------------------------------------------------------------------------]
D [-------------------------------------------------------------------------]
A [--5-4-5-4-5-4-5-4-5-7---5-4-5-4-5-4-5-4-5-7---7-10-9-7-10-9-7-10-9-------]
E [-------------------------------------------------------------------------]

GUITARRA 2
E [-------------------------------------------------------------------------]
B [-------------------------------------------------------------------------]
G [--7777777----------------------------------------------------------------]
D [--7777777--------7777777--------5555555------------999--7-777------------]
A [--5555555--------7777777--------5555555------------999--7-777------------]
E [-----------------5555555--------3333333------------777--5-555------------]

Me encantan tus ojos que son como el cielo
Los veo y no creo que pueda tenerlos
Si estoy en el cielo y me voy al infierno todo por tu cuerpo
Maldito deseo 


   Uhhhhhhhhhhh Ohhhhhhhhh  Nooooo
GUITARRA 1 y 2
E [-------------------------------------------------------------------------]
B [-------------------------------------------------------------------------]
G [-------------------------------------------------------------------------]
D [--5---5---5---------7---7---7--------------------------------------------]
A [--5---5---5---------7---7---7--------------------------------------------]
E [--3---3---3---------5---5---5--------------------------------------------]

   Dime otra vez...     que me quieres y      que no te iras
GUITARRA 1 y 2
E [-------------------------------------------------------------------------]
B [-------------------------------------------------------------------------]
G [--77777-777--------------------------------------------------------------]
D [--77777-777------77777-777-------55555-555-----------999--7-777----------]
A [--55555-555------77777-777-------55555-555-----------999--7-777----------]
E [-----------------55555-555-------33333-333-----------777--5-555----------]

   Dime otra vez...     que eres mia y        de nadie más
GUITARRA 1 y 2
E [-------------------------------------------------------------------------]
B [-------------------------------------------------------------------------]
G [--77777-777--------------------------------------------------------------]
D [--77777-777------77777-777-------55555-555-----------999--7-777----------]
A [--55555-555------77777-777-------55555-555-----------999--7-777----------]
E [-----------------55555-555-------33333-333-----------777--5-555----------]

GUITARRA 1
E [-------------------------------------------------------------------------]
B [-------------------------------------------------------------------------]
G [-------------------------------------------------------------------------]
D [--------4--------------4---------------4-------------7---4---------------]
A [--5-5-5---5-5-5----------5---------------5-------------5---4/5-----------]
E [-----------------5-5-5-------5-5-3-3-3-----3-3-5-5-5---------------------]

GUITARRA 2
E [-------------------------------------------------------------------------]
B [-------------------------------------------------------------------------]
G [-------------------------------------------------------------------------]
D [-------------------------------------------------------------------------]
A [--5--5/7----7--7/2----2--2/10-----10--9--10--9---------------------------]
E [-------------------------------------------------------------------------]

GUITARRA 1
E [-------------------------------------------------------------------------]
B [-------------------------------------------------------------------------]
G [-------------------------------------------------------------------------]
D [--------4--------------4---------------4-------------7---4---------------]
A [--5-5-5---5-5-5----------5---------------5-------------5---4/5-----------]
E [-----------------5-5-5-------5-5-3-3-3-----3-3-5-5-5---------------------]

GUITARRA 2
E [-------------------------------------------------------------------------]
B [-------------------------------------------------------------------------]
G [-------------------------------------------------------------------------]
D [-------------------------------------------------------------------------]
A [---5--5/7----7--7/9---9-10-9-----5--5/7----7--7/9---9-10-9---------------]
E [-------------------------------------------------------------------------]



    Dime otra vez...     que me quieres y      que no te iras
GUITARRA 1 y 2
E [-------------------------------------------------------------------------]
B [-------------------------------------------------------------------------]
G [--7----------------------------------------------------------------------]
D [--7--------------7---------------5-------------------9---7---------------]
A [--5--------------7---------------5-------------------9---7---------------]
E [-----------------5---------------3-------------------7---5---------------]

    Dime otra vez...     que eres mia y        de nadie más
GUITARRA 1 y 2
E [-------------------------------------------------------------------------]
B [-------------------------------------------------------------------------]
G [--77777-777--------------------------------------------------------------]
D [--77777-777------77777-777-------55555-555-----------999--7-777----------]
A [--55555-555------77777-777-------55555-555-----------999--7-777----------]
E [-----------------55555-555-------33333-333-----------777--5-555----------]

    Dime otra vez...     que me quieres y      que no te iras
GUITARRA 1 y 2
E [-------------------------------------------------------------------------]
B [-------------------------------------------------------------------------]
G [--77777-777--------------------------------------------------------------]
D [--77777-777------77777-777-------55555-555-----------999--7-777----------]
A [--55555-555------77777-777-------55555-555-----------999--7-777----------]
E [-----------------55555-555-------33333-333-----------777--5-555----------]

    Dime otra vez...     que eres mia y        de nadie más
GUITARRA 1 y 2
E [-------------------------------------------------------------------------]
B [-------------------------------------------------------------------------]
G [--77777-777--------------------------------------------------------------]
D [--77777-777------77777-777-------55555-555-----------999--7-777----------]
A [--55555-555------77777-777-------55555-555-----------999--7-777----------]
E [-----------------55555-555-------33333-333-----------777--5-555----------]

Dime otra vez...     que me quieres y      que no te iras
GUITARRA 1 y 2
E [-------------------------------------------------------------------------]
B [-------------------------------------------------------------------------]
G [--77777-777----------------------------------------------7---------------]
D [--77777-777------77777-777-------55555-555-------9---7---7---------------]
A [--55555-555------77777-777-------55555-555-------9---7---5---------------]
E [-----------------55555-555-------33333-333-------7---5-------------------]
   




Добавлено: 04.06.2013
Другие материалы по этой песне:
  • Аккорды и текст

Страница создана 04.06.2013
http://primanota.ru/allison/fragil-chords.htm
Привет, Гость.
Предлагаем пройти революционный курс по гитаре.
Подарок от PrimaNota.Ru, забирай!