PrimaNota.ru - самый крупный в мире бесплатный архив песенных текстов, аккордов, табулатур и нот


Allison - Algo Que Decir - таба, видео

Регистрация Запомнить меня
Войти через:  Facebook Google Twitter Vk Yandex Mail.ru

Allison - Algo Que Decir - таба, видео

Печатать
Просмотров: 93
ARTIST:ALLISON
SONG:ALGO QUE DECIR
ALBUM:MEMORAMA

BY SYNRODRIGOGATES
*********************************************************
Intro:
E||-------------------------|--------------------------|
B||-------------------------|--------------------------|
G||-------------------------|--------------------------|
D||-------------------------|--------------------------|x8
A||----------5-----8-----7--|-----------3-----1--3--1--|
D||--0----0-----0-----0-----|--0--0--0-----0-----------|

1 VERSO:
 A#m
No puede ser, no puedo entender,
E|-------------|-------------|
B|-------------|-------------|
G|-------------|-------------|
D|--3-----2--2-|--3-----2--2-|
A|--1(x8)-1--1-|--1(X8)-1--1-|
E|-------------|-------------|

Dm                                       A#m
por que las cosas van a donde dicen los  Demas,
E|-----------------|-------------------|
B|-----------------|-------------------|
G|-----------------|-------------------|
D|--7-----5--5-----|--7-----5--5-------|
A|--5(X8)-5--5-----|--5(X8)-5--5-------|
E|-----------------|-------------------|

					  C
que las mentiras hablen que digan algo que
E|--------------|--------------|
B|--------------|--------------|
G|--------------|--------------|
D|--3-----2--2--|--3-----2--2--|
A|--3(X8)-3--3--|--3(X8)-3--3--|
E|--3-----3--3--|--3-----3--3--|

                        A#m
no quiero saber, y que Duele desde ayer
E|--------------|---------------|
B|--------------|---------------|
G|--------2--2--|---------------|
D|--5-----3--3--|--5-----10--9--|
A|--3(X8)-3--3--|--3(X8)-8---7--|
E|--------------|---------------|


CORO:
         A#m    F     C  Em              F   C
Y es que he decidido ser un motivo, mas que una razon,
E|--------------------------|
B|--------------------------|
G|--3-----------5-----------|(X2)
D|--3-----3-----5-----0--3--|
A|--1(X5)-3(X5)-3(X5)-0--3--|
E|--------3-----------0--3--|

 Em F#m A#m       F   C  Em F#m
para desarmar su Relacion quiero largarme
E|--------------------------|
B|--------------------------|
G|--3-----------5-----------|
D|--3-----3-----5-----0--3--|
A|--1(x5)-3(x5)-3(x5)-0--3--|
E|--------3-----------0--3--|

                 Em   F#m
y no ver nunca mas lo que paso
E|-------------------------|
B|-------------------------|
G|-3-----------5-----------|
D|-3-----3-----5-----0--3--|
A|-1(x5)-3(x5)-3(x5)-0--3--|
E|-------3-----------0--3--|


E||-------------------------|--------------------------|
B||-------------------------|--------------------------|
G||-------------------------|--------------------------|
D||-------------------------|--------------------------|x8
A||----------5-----8-----7--|-----------3-----1--3--1--|
D||--0----0-----0-----0-----|--0--0--0-----0-----------|

2 VERSO
           A#m
Que injusto es mirar las cicatrises que
E|-----------------------|
B|-----------------------|
G|-----------------------|
D|--3-3-3----------------|(X2)
A|--1-1-1(x3)-3/5--1/3-0-|
E|-----------------------|

Dm               	       F
has dejado en mi, las cosas que Hacen y
E|--------------------------------|
B|--------------------------------|
G|--------------------------------|
D|--7-----------------------------|(x2)
A|--7--5--8-7---3-3---3/5---1/3-0-|
E|--5-----------------------------|

      F
miro que soy un infeliz y que
E|-------------|-------------|
B|-------------|-------------|
G|-------------|-------------|
D|--3-----2--2-|--3-----2--2-|
A|--1(x8)-1--1-|--1(x8)-1--1-|
E|-------------|-------------|
     C		 	           A#m
que nunca quise ser y ahora soy asi
E|-------------|---------------------|
B|-------------|---------------------|
G|--------2--2-|---------------------|
D|--5-----3--3-|--5----3-2-0-2-3-2-0-|
A|--3(x8)-3--3-|--3(x8)--------------|
E|-------------|---------------------|

CORO:
         A#m    F     C  Em              F   C
Y es que he decidido ser un motivo, mas que una razon,
E|--------------------------|
B|--------------------------|
G|--3-----------5-----------|(X2)
D|--3-----3-----5-----0--3--|
A|--1(X5)-3(X5)-3(X5)-0--3--|
E|--------3-----------0--3--|

 Em F#m A#m       F   C  Em F#m
para desarmar su Relacion quiero largarme
E|--------------------------|
B|--------------------------|
G|--3-----------5-----------|
D|--3-----3-----5-----0--3--|
A|--1(x5)-3(x5)-3(x5)-0--3--|
E|--------3-----------0--3--|

                 Em   F#m
y no ver nunca mas lo que paso
E|-------------------------|
B|-------------------------|
G|-3-----------5-----------|
D|-3-----3-----5-----0--3--|
A|-1(x5)-3(x5)-3(x5)-0--3--|
E|-------3-----------0--3--|

 PUENTE:
|---------------|---------------|---------------|----------------|
|---------------|---------------|---------------|----------------|
|----3---3---3--|----5---5---5--|---7---7---7---|--9---9---9-10--|
|----x---x---x--|----x---x---x--|---x---x---x---|--x---x---x-x---|
|----1---1---1--|----3---3---3--|---5---5---5---|--7---7---7-8---|
|---------------|---------------|---------------|----------------|

						   X2
|---------------|------------------------|----------|---------|
|---------------|------------------------|----------|---------|
|---------------|------------------------|----------|---------|
|---------------|x2----------8-8-8-10----|----------|---------|
|-(12)\------12-|---12-(12)\-8-8-8-10-12-|(12)\-----|-12-(12)-|
|-(12)\0-0-0-12-|---12-(12)\-8-8-8-10-12-|(12)\0-0-0|-12-(12)-|

|----------------|
|----------------|
|----------------|
|-8-8-8-10-10-10-|
|-8-8-8-10-10-10-|
|-8-8-8-10-10-10-|

SOLO:
-----------------------------|------------------------------|
--------10-----10--------11--|-----10--------10--11--10--8--|
--7--7------7------7--7------|--7------7--7-----------------|
-----------------------------|------------------------------|
-----------------------------|------------------------------|
-----------------------------|------------------------------|

--------------------------|--------------------------|
--------6-----5--------6--|-----5--------5--6--5--3--|
--3--3-----3-----3--3-----|--3-----3--3--------------|
--------------------------|--------------------------|
--------------------------|--------------------------|
--------------------------|--------------------------|

-----------------------------|------------------------------|
--------10-----10--------11--|-----10--------10--11--10--8--|
--7--7------7------7--7------|--7------7--7-----------------|
-----------------------------|------------------------------|
-----------------------------|------------------------------|
-----------------------------|------------------------------|

CORO:
         A#m    F     C  Em              F   C
Y es que he decidido ser un motivo, mas que una razon,
E|--------------------------|
B|--------------------------|
G|--3-----------5-----------|(X2)
D|--3-----3-----5-----0--3--|
A|--1(X5)-3(X5)-3(X5)-0--3--|
E|--------3-----------0--3--|
  Em F#m A#m       F   C  Em F#m
para desarmar su Relacion quiero largarme
E|--------------------------|
B|--------------------------|
G|--3-----------5-----------|
D|--3-----3-----5-----0--3--|
A|--1(x5)-3(x5)-3(x5)-0--3--|
E|--------3-----------0--3--|
                 Em   F#m
y no ver nunca mas lo que paso
E|-------------------------|
B|-------------------------|
G|-3-----------5-----------|
D|-3-----3-----5-----0--3--|
A|-1(x5)-3(x5)-3(x5)-0--3--|
E|-------3-----------0--3--|


E||-------------------------|--------------------------|--------|
B||-------------------------|--------------------------|--------|
G||-------------------------|--------------------------|--------|
D||-------------------------|--------------------------|x2-0----|
A||----------5-----8-----7--|-----------3-----1--3--1--|---0----|
D||--0----0-----0-----0-----|--0--0--0-----0-----------|---0----|

OTRA VERSION DEL SOLO:

E|------------------------------|
B|--10-10---11-10---10/11--10/6-|
G|------------------------------|
D|------------------------------|
A|------------------------------|
E|------------------------------|
      F          C
E|-----------------------|
B|-----------------------|
G|--9-9-10-9---9/10--9/7-|
D|-----------------------|
A|-----------------------|
E|-----------------------|
         D
E|------------------------------|
B|--10-10---11-10---10/11--10/6-|
G|------------------------------|
D|------------------------------|
A|------------------------------|
E|------------------------------|
Добавлено: 14.08.2013
Другие материалы по этой песне:
  • Аккорды и текст

Страница создана 14.08.2013
http://primanota.ru/allison/algo-que-decir-chords.htm
Привет, Гость.
Предлагаем пройти революционный курс по гитаре.
Подарок от PrimaNota.Ru, забирай!