PrimaNota.ru - самый крупный в мире бесплатный архив песенных текстов, аккордов, табулатур и нот


Allison - Addisi - бас-таба, видео

Регистрация Запомнить меня
Войти через:  Facebook Google Twitter Vk Yandex Mail.ru

Allison - Addisi - бас-таба, видео

Печатать
Просмотров: 91
ADDISI tab by Allison

    Todo El Tiempo Voy cambiando
    Sin saber Que Esta Pasando
1|------------------------------------------------------|
0|------------------------------------------------------|
3|--------------222222--444444--000000---| (Bajo--------|
2|--000000----------------------------------------------|
  Pero Sigo Avanzando Viviendo Sin....
1|--------------------------------------------------|
0|--------------------------------------------------|
3|--------------222222--444444--0~------------------|
2|--000000------------------------------------------|
   Ti

1|-----------------------------------------------------|
0|-----------------------------------------------------|
3|-----------------------------------------------------|
2|--2--------------------------------------------------|  (Guitarra)
5|--2--------------------------------------------------|
4|--0--------------------------------------------------|


-------------------- solo bater
Добавлено: 21.09.2013
Другие материалы по этой песне:
  • Аккорды и текст

Страница создана 21.09.2013
http://primanota.ru/allison/addisi-chords.htm
Привет, Гость.
Предлагаем пройти революционный курс по гитаре.
Подарок от PrimaNota.Ru, забирай!