PrimaNota.ru - самый крупный в мире бесплатный архив песенных текстов, аккордов, табулатур и нот


Allie Moss - Dig With Me - таба, видео

Регистрация Запомнить меня
Войти через:  Facebook Google Twitter Vk Yandex Mail.ru

Allie Moss - Dig With Me - таба, видео

Печатать
Просмотров: 172
LOVE Allie Moss!

Sorry in advance that the lyrics aren't perfectly lined up w/ the tab.

I also noticed a difference between older and more recent videos of her performing this 
song: in the second line of the chorus ("let's raise this thing from the dead..."), she 
added her pinky on the B string, 3rd fret, to the Emaj.

e|--------|
B|----3---|
G|---1----|          It sounds nice, but I guess it's up to you.
D|--2-----|
A|-2------|
E|--------|


Capo 1

[Intro]

e|-----------------------------------------------------------------|
B|----1----1----1----1------1----1----1----1------1----1----1----1-|
G|---2----2----2----2------0----0----0----0------0----0----0----0--|  x2
D|--2----2----2----2------2----2----2----2------0----0----0----0---|
A|-0----0----0----0------3----3----3----3--------------------------|
E|---------------------------------------------3----3----3----3----|

[Verse1]

e|-----------------------------------------------------------------|
B|----1----1----1----1------1----1----1----1------1----1----1----1-|
G|---2----2----2----2------0----0----0----0------0----0----0----0--|
D|--2----2----2----2------2----2----2----2------0----0----0----0---|
A|-0----0----0----0------3----3----3----3--------------------------|
E|---------------------------------------------3----3----3----3----|

           What gave me away? Was it my face? It's written on there

e|---------------------------------------------------------------------|
B|----1----1------1----1------1----1----1----1------1----1------1----1-|
G|---2----2------0----0------0----0----0----0------2----2------0----0--|
D|--2----2------2----2------0----0----0----0------3----3------0----0---|
A|-0----0------3----3----------------------------0----0----------------|
E|-------------------------3----3----3----3------------------3----3----|

clear as day, isn't it?      Well that's one thing that's still the same...

e|-----------------------------------------------------------------|
B|----1----1----1----1------1----1----1----1------1----1----1----1-|
G|---2----2----2----2------0----0----0----0------0----0----0----0--|
D|--2----2----2----2------2----2----2----2------0----0----0----0---|
A|-0----0----0----0------3----3----3----3--------------------------|
E|---------------------------------------------3----3----3----3----|
   Am                    C                     G

 And I won't lie to you love, I'm not ok...I've already spent

e|--------------------------------------------------------- ------|
B|----1----1------1----1------1----1----1----1------1----1- ----1-|
G|---2----2------0----0------0----0----0----0------2----2-- ---0--|
D|--2----2------2----2------0----0----0----0------3----3--- --0---|
A|-0----0------3----3----------------------------0----0---- ------|
E|-------------------------3----3----3----3---------------- -3----|
   Am          C           G                     Fmaj7       G (x4)

too much time hiding that...And that's one thing that has to change...

[Chorus]

e|--------- --------- -------- -------- --------|
B|----1---- ----3---- ----1--- ----1--- ----1---|
G|---0----- ---0----- ---2---- ---0---- ---0----|
D|--2------ --0------ --3----- --2----- --0-----|
A|-3------- -2------- -0------ -3------ --------|
E|--------- --------- -------- -------- -3------|
    x4         x4        x4       x2        x2

 Passions I laid to rest may still have some life in them,
 So dig, dig with me...

e|--------- --------- -------- -------- --------|
B|----1---- ----0---- ----1--- ----1--- ----1---|
G|---0----- ---1----- ---2---- ---0---- ---0----|
D|--2------ --2------ --3----- --2----- --0-----|
A|-3------- -2------- -0------ -3------ --------|
E|--------- --------- -------- -------- -3------|
    x4         x4        x4       x2        x4

 Let's raise this thing from the dead, and breathe some life in it,
 Believe with me...



[Verse 2]

e|-----------------------------------------------------------------|
B|----1----1----1----1------1----1----1----1------1----1----1----1-|
G|---2----2----2----2------0----0----0----0------0----0----0----0--|
D|--2----2----2----2------2----2----2----2------0----0----0----0---|
A|-0----0----0----0------3----3----3----3--------------------------|
E|---------------------------------------------3----3----3----3----|
   Am                    C                     G

               We always say       that we know how          to make

e|--------------------------------------------------------- ------|
B|----1----1------1----1------1----1----1----1------1----1- ----1-|
G|---2----2------0----0------0----0----0----0------2----2-- ---0--|
D|--2----2------2----2------0----0----0----0------3----3--- --0---|
A|-0----0------3----3----------------------------0----0---- ------|
E|-------------------------3----3----3----3---------------- -3----|
   Am          C           G                     Fmaj7       G (x4)

light of what's heaviest somehow...Tell me that's one thing that hasn't
                                                             changed...


[Chorus]

e|--------- --------- -------- -------- --------|
B|----1---- ----3---- ----1--- ----1--- ----1---|
G|---0----- ---0----- ---2---- ---0---- ---0----|
D|--2------ --0------ --3----- --2----- --0-----|
A|-3------- -2------- -0------ -3------ --------|
E|--------- --------- -------- -------- -3------|
    x4         x4        x4       x2        x2

 Passions I laid to rest may still have some life in them,
 So dig, dig with me...

e|--------- --------- -------- -------- --------|
B|----1---- ----0---- ----1--- ----1--- ----1---|
G|---0----- ---1----- ---2---- ---0---- ---0----|
D|--2------ --2------ --3----- --2----- --0-----|
A|-3------- -2------- -0------ -3------ --------|
E|--------- --------- -------- -------- -3------|
    x4         x4        x4       x2        x4

 Let's raise this thing from the dead, and breathe some life in it,
 Believe with me...

[Inter]

e|-----------------------------------------------------------------|
B|----1----1----1----1------1----1----1----1------1----1----1----1-|
G|---2----2----2----2------0----0----0----0------0----0----0----0--|
D|--2----2----2----2------2----2----2----2------0----0----0----0---| x2
A|-0----0----0----0------3----3----3----3--------------------------|
E|---------------------------------------------3----3----3----3----|


e|-----------------------------------------------------------------|
B|----1----1----1----1------1----1----1----1------1----1----1----1-|
G|---2----2----2----2------0----0----0----0------0----0----0----0--|
D|--2----2----2----2------2----2----2----2------0----0----0----0---|
A|-0----0----0----0------3----3----3----3--------------------------|
E|---------------------------------------------3----3----3----3----|

Lean my weight, lean your weight, lean our weight...  x2
Lean our weight, lean our weight, lean our weight...  x4

e|--------|
B|----1---|
G|---0----|
D|--3-----|
A|-0------|
E|--------|
    x4

Let's get our hands dirty...
Добавлено: 09.04.2012
Другие материалы по этой песне:
  • Аккорды и текст

Страница создана 09.04.2012
http://primanota.ru/allie-moss/dig-with-me-chords.htm
Привет, Гость.
Предлагаем пройти революционный курс по гитаре.
Подарок от PrimaNota.Ru, забирай!