PrimaNota.ru - самый крупный в мире бесплатный архив песенных текстов, аккордов, табулатур и нот


Allergic Alice - Allergic Ako Sa - аккорды и текст, видео

Регистрация Запомнить меня
Войти через:  Facebook Google Twitter Vk Yandex Mail.ru

Allergic Alice - Allergic Ako Sa - аккорды и текст, видео

Печатать
Просмотров: 93
Allergic Ako Sa
Allergic Alice
Artist: Allergic Alice
Tabbed by: Alnel Vincent T. Alico
Email: alnelextreme@yahoo.com

STANDARD TUNING
No capo

Chords: EADGBe    Alternative

E       x79997 or x76454 or 022100
B       799877 or x24442
A       577655 or x02220

2 ways to play for Intro and 1st chorus: A or B (choose one)

A. (If this isn't fine enough, you can try B below.)
   (This sounds a lot like the ukulele played actually.)

Intro:

   E         B         A         B

e|-7---------7---------5---------7----------------------|
B|-9-------9-7-------7-5-------5-7---10-9-7-------------|
G|-9-----9---8-----8---6-----6---8----------9-----------|
D|-9---9-----9---9-----7---7-----9----------------------|
A|-7---------9---------7---------9----------------------|
E|-----------7---------5---------7----------------------|

Chorus:

   E         B         A         A         A

e|-7---------7---------5---------5---------5------------|
B|-9-------9-7-------7-5-------5-5---------5---10-9-7---|
G|-9-----9---8-----8---6-----6---6---------6----------9-|
D|-9---9-----9---9-----7---7-----7---------7------------|
A|-7---------9---------7---------7---------7------------|
E|-----------7---------5---------5---------5------------|

B. (You may find this more fun to play than A.)
   (I think it's easier to play this way, but is less like the original.)

Intro:

   E         B         A         B

e|-4-------4-2-------2-0-------0-2---5-4-2--------------|
B|-5-----5---4-----4---2-----2---4---------5------------|
G|-4---4-----4---4-----2---2-----4----------------------|
D|-6---------4---------2---------4----------------------|
A|-7---------2---------0---------2----------------------|
E|------------------------------------------------------|

Chorus:

   E         B         A         A         A

e|-4-------4-2-------2-0-------0-0---------0----5-4-2---|
B|-5-----5---4-----4---2-----2---2---------2----------5-|
G|-4---4-----4---4-----2---2-----2---------2------------|
D|-6---------4---------2---------2---------2------------|
A|-7---------2---------0---------0---------0------------|
E|------------------------------------------------------|

      E
   Allergic ako sa ganito
      B
   Allergic ako sa ganyan
      A
   Allergic ako sa ano
      A              A
   Allergic ako sa iyo

Verse 1: E B A A (2x)

      E
   Allergic ako sa maraming bagay
      B
   Allergic ako sa taong maiingay
         A
   Lalo na pag nag-videoke ang iingay
        A
   Pag My Way na parang laging nag-aaway
      E
   Allergic ako sa mga mabagal
           B
   Parang turtle kung kumilos talagang sagabal
      A
   Allergic ako sa mga mahangin
       A (drop)
   Sa yabang ng hirit para kang tatangayi-in

Chorus: E B A A A

      E
   Allergic ako sa ganito
      B
   Allergic ako sa ganyan
      A
   Allergic ako sa ano
      A              A
   Allergic ako sa iyo

Verse 2: E B A A A (2x)

      E
   Allergic ako sa jeje na spelling
    B
   Kung magsulat parang ibang planeta galing
      A
   Allergic ako sa grammar na mali-mali
          A
   Ang sakit sa mata para kasing minadali
      A
   Allergic ako sa overused expressions
     (N.c)
   "Boom! Epic mo te!" Wag mo na sanang i-mention
      E
   Allergic ako sa nag-o-overpost ng selfie
      B 
   Pati OOTD at mga alagang kitties
      A
   Allergic ako sa mga PDA
            A
   Holding hands while walking na pa-sway-sway
      A
   Allergic ako sa walang katuturan
     A (drop)
   Mga kanta't sayaw na puro ka-ek-ekan (hmm kate!)

Chorus: E B A A A

      E
   Allergic ako sa ganito
      B
   Allergic ako sa ganyan
      A
   Allergic ako sa ano
      A              A
   Allergic ako sa iyo

Outro: E B A A A

(strum each chord once)

     E
   Ako'y napapakamot
             B
   (Hay!) Nakakayamot
      A
   Allergic man ako sa kung ano-ano
    A                                   A
   Pero pinaka-allergic pa rin ako sa'yo
   



        
Enjoy :)
-AlnelExtreme-
Добавлено: 12.08.2015
Другие материалы по этой песне:
  • Аккорды и текст

Страница создана 12.08.2015
http://primanota.ru/allergic-alice/allergic-ako-sa-chords.htm
Привет, Гость.
Предлагаем пройти революционный курс по гитаре.
Подарок от PrimaNota.Ru, забирай!