PrimaNota.ru - самый крупный в мире бесплатный архив песенных текстов, аккордов, табулатур и нот


The Aller Værste - På Vei Hjem - таба, видео

Регистрация Запомнить меня
Войти через:  Facebook Google Twitter Vk Yandex Mail.ru

The Aller Værste - På Vei Hjem - таба, видео

Печатать
Просмотров: 62
Уроки эстрадного вокала в Санкт-Петербурге
For the [F] and [G] chords, use these:
e|-------5-------7------|
B|-------6-------8------|
G|-------5-------7------|
D|-------7-------9------|
A|-------8-------10-----|
E|-------x-------x------|


---------------------------------------------

Intro/:
e|------------------------------7-------------|
B|-8-7----------------------------8-----------|
G|-----7-10-9---------------------------------|
D|------------10-7-/9-9-9-9-9-----------------|
A|--------------------------------------------|
E|--------------------------------------------|
 
    |Improv over these for some time|  
e|------------------------------12-12-12--14-14---------------------|
B|------------------------------12-12-12--14-14---------------------|
G|-12-12--12~---14-14~----|x4|--12-12-12--14-14--|x4|---------------|
D|-12-12--12~---14-14~----------12-12-12--14-14---------------------|
A|------------------------------------------------------------------|
E|------------------------------------------------------------------|

e|---------------------------------------------------------------------------|
B|-8-7-------------------------------------------------------------------------|
G|-----7-10-9------------------|x5|--------------------------------------------------|
D|------------10-7-/9-9-9-9-9---------------------------------------------------------|
A|---------------------------------------------------------------------------|
E|---------------------------------------------------------------------------|

G
Det var ålreit gater
G                            F          G       F
der borte på den plassen jeg veit du er
G
Og parkene var fine
G                            F          G       F
Viggo, Lars og jeg dreiv og klatra trær

e|------------------------------|
B|------------------------------|
G|------------------------------|
D|--------7---------7-9---------|
A|-7-9-10-------6-9-------------|
E|------------------------------|

Skoene våre lagde merker i barken

   Em     D#m    Dm   C#m
Og ungene hylte fra ungeparken
   C
Så krabba vi ned igjen
       D   Dsus4 D
På vei hjem

e|--15-15-15-15-15-15-15-15-14--|
B|------------------------------|
G|------------------------------|
D|------------------------------|
A|------------------------------|
E|------------------------------|
                Em
Til en eller annen

e|---15/----------------------------------------------7---|
B|---15/----8-7--------------------------8-7----------8---|
G|--------------7-10-9-----------------------7-10-9---7---|
D|---------------------10-7-9-9-9-9-9-----------------9---|
A|----------------------------------------------------10--|
E|-12-----------------------------------------------------|

G
Vi gikk forbi en kjøpmann
G                        F         G        F 
Jeg hørte at du pleide å handle der
G 
Vi preika litt med fyren
G                        F         G        F
Han var hyggelig slik som kjøpmenn er

e|------------------------------|
B|------------------------------|
G|------------------------------|
D|--------7---------7-9---------|
A|-7-9-10-------6-9-------------|
E|------------------------------|

Vi skulle stjelt ølet
men ble sentimentale
   Em     D#m    
ble stående å preike 
         Dm          C#m
med noen tilfeldige i lokalet
   C
så måtte vi videre
   D       Dsus4     D
På vei hjem
 
e|--15-15-15-15-15-15-15-15-14--|
B|------------------------------|
G|------------------------------|
D|------------------------------|
A|------------------------------|
E|------------------------------|
                Em
Til en eller annen

e|---15/----------------------------------------------7---|
B|---15/----8-7--------------------------8-7----------8---|
G|--------------7-10-9-----------------------7-10-9---7---|
D|---------------------10-7-9-9-9-9-9-----------------9---|
A|----------------------------------------------------10--|
E|-12-----------------------------------------------------|

G
Vi gikk forbi kåken din
G                     F          G         F
Jeg visste ikke at den var så svær
G
Er det du som har malt den
G                     F          G         F
i den cornye fargen der

e|------------------------------|
B|------------------------------|
G|------------------------------|
D|--------7---------7-9---------|
A|-7-9-10-------6-9-------------|
E|------------------------------|

Kunne stukket innom
men har ingenting å si deg
   Em           D#m
Jeg veit det er folk
        Dm          C#m
som har presanger å gi deg
       C 
Og jeg er bare en nervøs fyr
       D      Dsus4     D
På vei hjem

e|--15-15-15-15-14--|
B|------------------|
G|------------------|
D|------------------|
A|------------------|
E|------------------|
           Em
Til en eller annen

e|---15/------------------------7-7--|
B|---15/----8-7-----------------8-7--|
G|--------------7-10-9----------9-7--|
D|---------------------10-7-----9-7--|
A|-----------------------------------|
E|-12--------------------------------|

Til en eller annen

e|---15/------------------------7-7--|
B|---15/----8-7-----------------8-7--|
G|--------------7-10-9----------9-7--|
D|---------------------10-7-----9-7--|
A|-----------------------------------|
E|-12--------------------------------|

Til en eller annen

e|---15/------------------------7-7-7-7-|
B|---15/----8-7-----------------8-8-8-8-|
G|--------------7-10-9----------9-9-9-9-|
D|---------------------10-7-----9-9-9-9-|
A|--------------------------------------|
E|-12-----------------------------------|
Добавлено: 07.03.2016
Другие материалы по этой песне:
  • Аккорды и текст

Страница создана 07.03.2016
http://primanota.ru/aller-vrste/pa-vei-hjem-chords.htm
Привет, Гость.
Предлагаем пройти революционный курс по гитаре.
Подарок от PrimaNota.Ru, забирай!