PrimaNota.ru - самый крупный в мире бесплатный архив песенных текстов, аккордов, табулатур и нот


The Aller Værste - Må Ha Deg - таба, видео

Регистрация Запомнить меня
Войти через:  Facebook Google Twitter Vk Yandex Mail.ru

The Aller Værste - Må Ha Deg - таба, видео

Печатать
Просмотров: 55
e|--------------------------------------------------------------|
B|--------------------------------------------------------------|
G|--------------------------------------------------------------|
D|-12-15-14-11----13-17-15s17----12-15-14-11----13-17-15-17-----|
A|--------------------------------------------------------------|
E|--------------------------------------------------------------|

e|--------------------------------------------------------------|
B|--------------------------------------------------------------|
G|--------------------------------------------------------------|
D|-12-15-14-11----13-17-15-17----12-15-14-11----13-17/----------|
A|--------------------------------------------------------------|
E|--------------------------------------------------------------|

Dm          A
Du virket så hengiven
Eb
du virket så ærlig
Dm          A          Eb 
likevel var alle ting blitt så besværlige
Dm          A          Eb
hvem som ville hva og hvem som ville hvem
A           Bb        Eb           Dm                       
littegranne klining og littegranne klem

Dm    A
må ha deg
Eb
kan ikke få deg
Dm    A
stiller med et handikap
Eb
kan ikke nå deg
Dm    A
du sier at du lyver
Eb
jeg tror ikke på deg
Bb               G
se hvor langt du strekker deg
C      A           Dm
før du trekker deg ut

e|--------------------------------------------------------------|
B|--------------------------------------------------------------|
G|--------------------------------------------------------------|
D|-12-15-14-11----13-17-15s17----12-15-14-11----13-17-15-17-----|
A|--------------------------------------------------------------|
E|--------------------------------------------------------------|

e|--------------------------------------------------------------|
B|--------------------------------------------------------------|
G|--------------------------------------------------------------|
D|-12-15-14-11----13-17-15-17----12-15-14-11----13-17/----------|
A|--------------------------------------------------------------|
E|--------------------------------------------------------------|

Dm     A          Eb
du gir meg ingen klare signaler
Dm     A          Eb
du taler i tunger og jeg gjør som du befaler
Dm     A          Eb
men du tenker ikke på hvem som betaler
A          Bb        Eb          Dm 
ikke er du likegyldig ikke er du blitt uskyldig

Dm    A
må ha deg
Eb
kan ikke få deg
Dm    A
stiller med et handikap
Eb
kan ikke nå deg
Dm    A
du sier at du lyver
Eb
jeg tror ikke på deg
Bb               G
se hvor langt du strekker deg
C      A           Dm
før du trekker deg ut

Solo:
e|---------------------------------------------------------------------------|
B|---------------------------------------------------------------------------|
G|-------------15-14-12--12----------------15-14-12--12----------------------|
D|-15-14-12-11-----------------15-14-12-11-----------------------------------|
A|---------------------------------------------------------------------------|
E|---------------------------------------------------------------------------|

e|---------------------------------------------------------------------------|
B|---------------------------------------------------------------------------|
G|-------------15-14-12--12----------------15-14-12--12----------------------|
D|-15-14-12-11-----------------15-14-12-11-----------------------------------|
A|---------------------------------------------------------------------------|
E|---------------------------------------------------------------------------| 

e|---------------------------------------------------------------------------|
B|-----------------------------------------1-1-------------------------------|
G|-12--14----12--14----12--2-2-3-2-0---0-2-----3-2---------------------------|
D|-----------------------------------3---------------------------------------|
A|---------------------------------------------------------------------------|
E|---------------------------------------------------------------------------|

e|---------------------------------------------------------------------------|
B|-------------------------------1-1-----------------------------------------|
G|-12--14----12--2-2-3-2-0---0-2-----3-2-------------------------------------|
D|-------------------------3-----------2-------------------------------------|
A|---------------------------------------------------------------------------|
E|---------------------------------------------------------------------------|

Play this during the next verse: 
e|---------------------------|
B|---------------------------|
G|-12-14----------12-14------|x4
D|---------------------------|
A|---------------------------|
E|---------------------------|

Dm
våkner om natten med drømmer jeg ikke kan tro på
det kan ikke gå så jeg lar det gå i pysjamasen nå
i drømmen var du naken med en pute under baken
men kroppen din var hvit og mine hender var det blod på

Dm    A
må ha deg
Eb
kan ikke få deg
Dm    A
stiller med et handikap
Eb
kan ikke nå deg
Dm    A
du sier at du lyver
Eb
jeg tror ikke på deg
Bb               G
se hvor langt du strekker deg
C      A           Dm
før du trekker deg ut


e|--------------------------------------------------------------|
B|--------------------------------------------------------------|
G|--------------------------------------------------------------|
D|-12-15-14-11----13-17-15s17----12-15-14-11----13-17-15-17-----|
A|--------------------------------------------------------------|
E|--------------------------------------------------------------|

e|--------------------------------------------------------------|
B|--------------------------------------------------------------|
G|--------------------------------------------------------------|
D|-12-15-14-11----13-17-15-17----12-15-14-11----13-17/----------|
A|--------------------------------------------------------------|
E|--------------------------------------------------------------|

Dm               A             Eb
jeg følte meg så dårlig at jeg kom meg til en doktor
Dm               A             Eb             
han sa nå har du glemt den menneskelige faktor
Dm               A             Eb
du ville så gjerne se henne i sengen
Dm               A
så har du hengt deg opp i den
Eb
den samme gamle sammenhengen

Dm    A
må ha deg
Eb
kan ikke få deg
Dm    A
stiller med et handikap
Eb
kan ikke nå deg
Dm    A
du sier at du lyver
Eb
jeg tror ikke på deg
Bb               G
se hvor langt du strekker deg
C      A           Dm
før du trekker deg

Dm    A         |
må              | 
Eb              |
kan ikke        |x4
Dm    A         |
må              |
Eb              |
kan ikke        |

Bb               G
se hvor langt du strekker deg
C      A           Dm
før du trekker deg ut
Добавлено: 07.03.2016
Вам также может быть интересно:
Другие материалы по этой песне:
  • Аккорды и текст

Страница создана 07.03.2016
http://primanota.ru/aller-vrste/ma-ha-deg-chords.htm
Привет, Гость.
Предлагаем пройти революционный курс по гитаре.
Подарок от PrimaNota.Ru, забирай!