PrimaNota.ru - самый крупный в мире бесплатный архив песенных текстов, аккордов, табулатур и нот


The Aller Værste - Ingen Vei Tilbake - таба, видео

Регистрация Запомнить меня
Войти через:  Facebook Google Twitter Vk Yandex Mail.ru

The Aller Værste - Ingen Vei Tilbake - таба, видео

Печатать
Просмотров: 71
Intro/Main Riff:
e|---------------------------------------------------------------|
B|---------------------------------------------------------------|
G|---------------------5-5---------------------------------------|
D|-7---5-7-7-----7---5-----7---5-----5-5-----------------5-5-----| x 2
A|---7-------7-----7---------------7-----7---5-5-7-7-8-8---------|
E|-------------------------------8-------------------------------|

Intro solo:
e|---------------------------------------------------------------|
B|---------------------------------------------------------------|
G|-9-9-9-9-9-9-9-9-7-5-x-5-7----9-9-9-9-9-9-9-9-7-5--9-9-7-5-----| 
D|---------------------------------------------------------------| x 2
A|---------------------------------------------------------------|
E|---------------------------------------------------------------|

Am
Overdriver ikke når jeg sier at jeg visste
   C                  G 
At forholdet vårt var ikke intakt
Am
Så du forsøkte å holde det tilbake
       C                  G
inntil følsomhetskondomet sprakk
Am
evighetsplaner og perspektiver
   C                   G
tilintetgjort på ett minutt
Am
du ga meg en klem, jeg ville gi deg litt mere
    C                 G
men da var det allerede forbudt

C                              B     Em
alle ting går over - alle ting må ta slutt
D                     F            A           Dm
du legger deg ned å sover, våkner opp til noe nytt
F                     D
ingen vei tilbake nå, ingenting å takke for
G                      E                    Am
ingenting å snakke om, ta på deg jakken og gå

e|---------------------------------------------------------------|
B|---------------------------------------------------------------|
G|---------------------5-5---------------------------------------|
D|-7---5-7-7-----7---5-----7---5-----5-5-----------------5-5-----| 
A|---7-------7-----7---------------7-----7---5-5-7-7-8-8---------|
E|-------------------------------8-------------------------------|

e|---------------------------------------------------------------|
B|---------------------------------------------------------------|
G|-9-9-9-9-9-9-9-9-7-5-x-5-7----9-9-9-9-9-9-9-9-7-5--9-9-7-5-----| 
D|---------------------------------------------------------------| 
A|---------------------------------------------------------------|
E|---------------------------------------------------------------|

Am
vi var en centimeter fra det helt banale
    C                       G
jeg hørte hva jeg sa og ble irritert
Am
vi drakk oss fulle og ble sentimentale
    C                       G
men samtalen ble likefullt infisert
Am
du knuste mitt hjerte men ga meg en sur en
        C                   G
jeg er ennå ikke ferdig med pencillinkuren
Am
hvorfor må vi stange mot den samme gamle muren
       C                    G
når vi innser at vi ikke er interessert


C                              B     Em
alle ting går over - alle ting må ta slutt
D                     F            A           Dm
du legger deg ned å sover, våkner opp til noe nytt
F                     D
ingen vei tilbake nå, ingenting å takke for
G                      E                    Am
ingenting å snakke om, ta på deg jakken og gå

e|---------------------------------------------------------------|
B|---------------------------------------------------------------|
G|-9-9-9-9-9-9-9-9-7-5-x-5-7----9-9-9-9-9-9-9-9-7-5--9-9-7-5-----| 
D|---------------------------------------------------------------| x2
A|---------------------------------------------------------------|
E|---------------------------------------------------------------|
Добавлено: 07.03.2016
Другие материалы по этой песне:
  • Аккорды и текст

Страница создана 07.03.2016
http://primanota.ru/aller-vrste/ingen-vei-tilbake-chords.htm
Привет, Гость.
Предлагаем пройти революционный курс по гитаре.
Подарок от PrimaNota.Ru, забирай!